Rancid - St Mary Chords & Tabs

 

St Mary Chords & Tabs

Rancid Chords & Tabs

Version: 2 Type: Bass Tab 0 ratings
1 star 2 stars 3 stars 4 stars 5 stars
comments

St Mary Bass Tab

Rancid
St. Mary

Intro:
A:-------------5--5-5-5-5-5-5-5-5-5-5
E:3---3---3--------------------------
[ Tab from: http://www.guitartabs.cc/tabs/r/rancid/st_mary_btab_ver_2.html ]
Beginning, Middle, and End Instrumental: (Repeat once)
G:------------------------------------------------------------------
D:------------------------------------------------------------------
A:--------3----------------3----------------3-------5-5-5-5-5-5-5-5-
E:3-3-3-3----3--0--3-3-3-3----3--0--3-3-3-3----3--0-----------------

Verse: (Repeat 3 times)
G:--------------------------------
D:--------------------------------
A:--------5-5-5-4-3-3-3-5---------
E:3-3-3-3-----------------3-3-3-3-

Beat changes part:
G:----------------------------
D:----------------------------
A:------5--5--3-2-3-5---------
E:3--3----------------3-3-3-3-

Figured out and written by Fidget (bassist of Half Moon)
Comments