Rancid - Seven Years Down Chords & Tabs

 

Seven Years Down Chords & Tabs

Rancid Chords & Tabs

Version: 2 Type: Bass Tab 0 ratings
1 star 2 stars 3 stars 4 stars 5 stars
comments

Seven Years Down Bass Tab

Heres seven years down by    rancid: lets go
Song: Seven Years Down
Band: Rancid
Album: Let's Go
Tabbed by: Craig Miller

G:-----------------------------------------------------------------
D:-----------5-7--------2------------------------------------------
A:-7-7-7-7-7-------3-5---------------------------------------------
E:-------------------------7-5-------------------------------------

[ Tab from: http://www.guitartabs.cc/tabs/r/rancid/seven_years_down_btab_ver_2.html ]
G:-----------------------------------------------------------------
D:-----------------------------------------------------------------
A:-----------------------------------------------------------------
E:--5-5-5-5--2-2-2-2--3-3-3-3--4-4-4-4-----------------------------


I think this is how its played, dont take my word for tab it yourself..
If I fucked up and you know it, then fix it for everyone in this world...
Sorry if i did screw up, Im tone deaf, and it took me less than five minutes to tab this song..

craigm@ionet.net
Comments