Rancid - Ruby Soho Chords & Tabs

 

Ruby Soho Chords & Tabs

Rancid Chords & Tabs

Version: 7 Type: Tab 0 ratings
1 star 2 stars 3 stars 4 stars 5 stars
comments

Ruby Soho Tab

   
Band: Rancid
Song: Ruby Soho
Album: ...And Out Come the Wolves
Tabber: clark@theoddmenout.com

*= mute chord

Intro:
         Riff 1                      x3
e-------|------------------------------|
B-------|------------------------------|
G--12~--|-----0------0-------0------0--|
D--12~--|-------0------0---2------0----|
A--10~--|---------2------3-------------|
E-------|--3-------------------3-------|

Verse 1:
C*        D*     G*                        C*
Echoes of reggae comin' through my bedroom wall
C*             D*                G*                   C*
Havin' a party up next door, but I'm sittin here all alone
C*                D*               G*              C*
Two lovers in the bedroom, and the other starts to shout
C*                G*               D*
All I got is this blank stare, and that don't carry no clout at all 

Chorus: x2
G    B      C G
Destination unknown!
G     B           C    G
Ruby, Ruby, Ruby, Ruby Soho 
[ Tab from: http://www.guitartabs.cc/tabs/r/rancid/ruby_soho_tab_ver_7.html ]
Verse 2:
C*         D*    G*                    C*
He's singin, and she's there to lend a hand
C*            D*                       G*                  C*
He's seen his name on the marquee, but she will never understand
C*              D*           G*                             C*           
Once again he's leavin', and she's there with a tear in her eye
C*              G*                 D*
Embraces with a warm gesture; it's time, time to say goodbye

Chorus x2

Break:                 
e----------------------|----3----3-----3-3-3----3--|
B----------------------|----3----3-----3-3-3----3--|
G--5-5--3/5--5-5--3/5--|--5b---5b---5b--------5b---|
D--5-5--3/5--5-5--3/5--|---------------------------|
A--3-3--1/3--3-3--1/3--|---------------------------|
E----------------------|---------------------------|

e----------------------|----3----3----3----------|
B----------------------|----3----3----3----------|
G--5-5--3/5--5-5--3/5--|--5b---5b---5b---6b7-----|
D--5-5--3/5--5-5--3/5--|-------------------------|
A--3-3--1/3--3-3--1/3--|-------------------------|
E----------------------|-------------------------|

Verse 3:
C*                 D*            G*                        C*
Ruby's heart ain't beatin, cause she knows the feelin' is gone
C*            D*               G*                 C*
She's not the only one who knew there's somethin' wrong
C*                    D*           G*                        C*
Little lover's in the distance, as she wipes a tear from her eye
C*            G*                        D*
Ruby's fading out, she disappears, it's time, time to say goodbye

Chorus x2

Outro:
G     B           C      G
Ruby, Ruby, Ruby, Ruby Soho x4

Chorus x2 (with Ruby's)

End on G

That's it! For suggestions, corrections, and requests, email me:
                       oddmenout4@yahoo.com
Comments