Rancid - Ruby Soho Chords & Tabs

 

Ruby Soho Chords & Tabs

Rancid Chords & Tabs

Version: 6 Type: Tab 0 ratings
1 star 2 stars 3 stars 4 stars 5 stars
comments

Ruby Soho Tab

^ strum up
v strum down
* palm mute

Intro
|-3--3--------|
|-3--3--------|
|-0--0---5----|
|-2--0---5--5-|
|-3--2---3--5-|
|-0--3------3-|


|-3--3-3-----------------3--3-3-3-|
|-3--3-3-----------------3--3-3-3-|
|-0--0-0--4--4-4--5--5-5-0--0-0-0-|
|-0--0-0--4--4-4--5--5-5-0--0-0-0-|
|-2--2-2--2--2-2--3--3-3-2--2-2-2-|
|-3--3-3-----------------3--3-3-3-|
  v  v ^  v  v ^  v  ^ v ^  v ^ v
[ Tab from: http://www.guitartabs.cc/tabs/r/rancid/ruby_soho_tab_ver_6.html ]
verse
|--------------------------------------------------------------------|
|--------------------------------------------------------------------|
|------------------4-4-4-4-4-4-4-4--5-5-5-5-5-5-5-5------------------|
|-5-5-5-5-5-5-5-5--4-4-4-4-4-4-4-4--5-5-5-5-5-5-5-5--5-5-5-5-5-5-5-5-|
|-5-5-5-5-5-5-5-5--2-2-2-2-2-2-2-2--3-3-3-3-3-3-3-3--5-5-5-5-5-5-5-5-|
|-3-3-3-3-3-3-3-3------------------------------------3-3-3-3-3-3-3-3-|
  * * * * * * * *  * * * * * * * *  * * * * * * * *  * * * * * * * *

Riff
|--------------------------------------------------------------|
|--------------------------------------------------------------|
|-5-5-3-5--5-5-5-5-3-5-7--12-12-12-12\11/12--12-12-12-12\11/12-|
|-5-5-3-5--5-5-5-5-3-5-7--12-12-12-12\11/12--12-12-12-12\11/12-|
|-3-3-1-3--3-3-3-3-1-3-5--10-10-10-10\9-/10--10-10-10-10\9-/10-|
|--------------------------------------------------------------|

outro (strum)
|--------------------|
|--------------------|
|------444--555------|
|-555--444--555--555-|
|-555--222--333--555-|
|-333------------333-|
  v^v  v^v  v^v  v^v

end on
|-3-|
|-3-|
|-0-|
|-0-|
|-2-|
|-3-|

Intro x2
verse x4
Intro x2
verse x4
Intro x2
Riff x2
verse x4
Intro x2
outro x8
end x1
Comments