Rancid - Ruby Soho Chords & Tabs

 

Ruby Soho Chords & Tabs

Rancid Chords & Tabs

Version: 5 Type: Tab 0 ratings
1 star 2 stars 3 stars 4 stars 5 stars
comments

Ruby Soho Tab

   
--------------------------------------------------------------------------------
                              Ruby Soho - Rancid
--------------------------------------------------------------------------------

Artist: Rancid
Albulm: And out comes the wolves...
Song title: Ruby soho
Tabbed by: Zero is great man
Tunning EADGBe

Guitar 1: Intro:
e|-3--------3-|
B|-3--4--5--3-|
G|-0--4--5--0-|
D|-0--4--5--0-|
A|-2--2--3--2-|
E|-3--------3-|

Guitar 2: Intro: 
e|---------------------------|
B|---------------------------|
G|---0-----0-----0-----0-----|
D|-----0-----0-----0-----0-5-|
A|-------2-----3-----------5-|
E|-3-----------------3-----3-|
[ Tab from: http://www.guitartabs.cc/tabs/r/rancid/ruby_soho_tab_ver_5.html ]
Verse: "Echoes of Reggae..."
e|--------------------------------|
B|--------------------------------|
G|-5-5-5-5--7-7-7-7-----------5-5-|
D|-5-5-5-5--7-7-7-7--5-5-5-5--5-5-|
A|-3-3-3-3--5-5-5-5--5-5-5-5--3-3-|
E|-------------------3-3-3-3------|

Guitar 1: Chorus: "Destination unknown..."
e|-3-3------------3-3-|
B|-3-3--4-4--5-5--3-3-|
G|-0-0--4-4--5-5--0-0-|
D|-0-0--4-2--5-5--0-0-|
A|-2-2--2-2--3-3--2-2-|
E|-3-3------------3-3-|

Guitar 2: Chorus
e|--------------------|
B|--------------------|
G|--------------------|
D|------4-4--5-5------|
A|-5-5--2-2--3-3--5-5-|
E|-3-3------------3-3-|


Interlude: 
e|---------------------------3------|
B|---------------------------3------|
G|-5-5--3-3--5-5-5--3-3-4-5--0(x16)-|
D|-5-5--3-3--5-5-5--3-3-4-5--0------|
A|-3-3--1-1--3-3-3--1-1-2-3--2------|
E|---------------------------3------|

Finale:Both guitars
e|-----|
B|-----|
G|-(4)-|(let ring)
D|-(5)-|
A|-(5)-|
E|-(3)-|

================================================================================
Comments