Rancid - Ruby Soho Chords & Tabs

 

Ruby Soho Chords & Tabs

Rancid Chords & Tabs

Version: 4 Type: Tab 0 ratings
1 star 2 stars 3 stars 4 stars 5 stars
comments

Ruby Soho Tab

-------------------------------------------------------
                   Ruby Soho - Rancid…./and out come the wolves…….
         ---------------------------------------------------------
Tabbed by: The Apostle (GUITAR TAB)

e:--GUITAR 1-------------------------------------------------
B:---------------------------------------------------------
G:-----------------------4--5--------------------------------
D:---12-11--9--7----5--4--5--5-------------INTRO---------
A:---10--9--7--5----5--2--3--5-----------------------------
E:-------------------3---------3------------------------------
[ Tab from: http://www.guitartabs.cc/tabs/r/rancid/ruby_soho_tab_ver_4.html ]
e:---GUITAR 2-----------------------------------------------
B:---------------------------------------------------------
G:------------------4--5----------------------------------------
D:----------5---5-4--5---5-----------------INTRO-------
A:---5-4-2-3---5---2--3---5-------------------------------------
E:---3-2-0-----3---------3----------------------------------

e:---------------------------------------------------------------
B:----------VERSE---------------------CHORUS--------------------------------
G:----------------------------------------------4----5-------------
D:---5--7--------5--5---7-----------------5---4----5---5-----REPEAT-------------
A:---3--5---5---3--3---5--5---------------5---2---3---5-----------------------
E:----------3--------------3---------------3-----------3--------------

e:----------------------BRIDGE-----------------------------------------
B:---------------------------------------------------------------
G:-----------------------------------7-7-7-7-7-7-7------------
D:---5-5-5-3-5-5-5-5-3-5----5-5-5-5-5-5-5-------------
A:---3-3-3-1-3-3-3-3-1-3---------------------------------
E:---------------------------------------------------------------

I was unsure about the solo part so I didn't get it …this is a great song and rancid is a great band. Everything else should be correct.
Comments