Rancid - Ruby Soho Chords & Tabs

 

Ruby Soho Chords & Tabs

Rancid Chords & Tabs

Version: 3 Type: Tab 1 rating
1 star 2 stars 3 stars 4 stars 5 stars
comments

Ruby Soho Tab

By: Skesal

INTRO
Play twice.
e|--------------------------------------------------------------------|
B|--------------------------------------------------------------------|
G|--12-11--9-7---------------4--------5-------------------------------|
D|--12-11--9-7------5-----------4--------5-----5----------------------|
A|--10--9--7-5---------5--2--------3--------------5-------------------|
E|---------------3--------------------------3-------------------------|

VERSE
Guitar one. Play each chord eight times. Palm mute it all. Play last chord 16 times.
e|--------------------------------------------------------------------|
B|--------------------------------------------------------------------|
G|--5--7-----5-------5-----7------------------------------------------|
D|--5--7--5--5-(3x)--5--5--7------------------------------------------|
A|--3--5--5--3-------3--5--5------------------------------------------|
E|--------3-------------3---------------------------------------------|
[ Tab from: http://www.guitartabs.cc/tabs/r/rancid/ruby_soho_tab_ver_3.html ]
CHORUS
Distortion. At the end play the last chord once and let it ring out.
e|--------------------------------------------------------------------|
B|--------------------------------------------------------------------|
G|--------x4-444--5-55------------------------------------------------|
D|--5-55--x4-444--5-55--x5-555---------------------------------(2x)---|
A|--5-55--x2-222--3-33--x5-555----------------------------------------|
E|--3-33----------------x3-333----------------------------------------|

INTERLUDE/SOLO
e|----------------------------------2/33-2/33-2/33-2/33---------------|
B|----------------------------------2/33-2/33-2/33-2/33---------------|
G|--55-3/5--55-3/5----------------------------------------------------|
D|--55-3/5--55-3/5----------------------------------------------------|
A|--33-1/3--33-1/3----------------------------------------------------|
E|--------------------------------------------------------------------|

ORDER
Intro
Verse
Chorus
Verse
Chorus
Interlude/Solo
Verse
Chorus

(Expect more tabs from me soon.) 
Any questions or comments... then pm me in the discussion forum.
Comments