Rancid - Ruby Soho Chords & Tabs

 

Ruby Soho Chords & Tabs

Rancid Chords & Tabs

Version: 2 Type: Tab 1 rating
1 star 2 stars 3 stars 4 stars 5 stars
comments

Ruby Soho Tab

   
Ruby Soho
...and Out Come the Wolves
by Rancid (duh)

the other tab was bad. So here's a good one. It's correct.


 INTRO
    G                     G       B       C       G
E---3--------------------------------------------------------|
B---3------------------------3-------3-------3-------3-------|
G---0--------------------------0-------0-------0-------0-----|
D---0----------------------------0-------0-------0-------0---|
A---2------------------------------2-------3-----------------|
E---3----------------------3-----------------------3---------|
 let chord ring out       then play this part two times
[ Tab from: http://www.guitartabs.cc/tabs/r/rancid/ruby_soho_tab_ver_2.html ]
 VERSE
  C      D     G     C             C     G     D
E-------------------------       ------------------|
B-------------------------       ------------------|
G--5-----7-----------5----       --5-----------7---|
D--5-----7-----5-----5---- (3x)  --5-----5-----7---|
A--3-----5-----5-----3----       --3-----5-----5---|
E--------------3----------       --------3---------|
 (u can figure out strumming, palm muting and all that good crap)

 CHORUS
   G  B5   C   G
E--3-------3---3---|
B--3-------3---3---| 
G--0---4---0---0---|
D--0---4---2---0---|
A--2---2---3---2---|
E--3-----------3---|

I don't if Lars plays the C chord like that or not. In the video it looks like
thats how does it but he could do it two other ways.

   C     C5
E--0---------|  He might play the C chord but I doubt he plays the power 
B--1---------|  chord way. Cuz unless he's palm muting, any oppritunity Lars
G--0-----5---|  has to play an open chord, he takes it.
D--2-----5---|
A--3-----3---|
E------------|

 BRIDGE
   C  Bb
E--------------3-- Chuck Berry licks, bend note on G string the hit the notes
B--------------3-- on the b,e strings.
G--5---3----5-----
D--5---3----------
A--3---1----------
E-----------------

   G   B   C   G
E------------------|
B------------------| play this during the part where there's just one guitar 
G------4---5-------| and Tim mumbles "Ruby Ruby Ruby Ruby Soho"
D--5---4---5---5---|
A--5---2---3---5---|
E--3-----------3---|

thats it.
Comments