Rancid - Ruby Soho Chords & Tabs

 

Ruby Soho Chords & Tabs

Rancid Chords & Tabs

Version: 3 Type: Bass Tab 0 ratings
1 star 2 stars 3 stars 4 stars 5 stars
comments

Ruby Soho Bass Tab

Rancid -> Ruby Soho


Intro->  2x
G:----------------------------------------
D:3-2--------------0---0----0-------------
A:----7-5-5-2-0---2-2-3-3-2---------------
E:--------------3-------------3-----------
 


G:--------------------------------------------------
D:----0-3-4-5-3-2-----------------------------2-----
A:3-5-------------5-3-0-3-0-3-5-3-2-0---2-3-5---3---
E:------------------------------------3-------------

G:---------------------------------------------------------
D:----------0-3-4-5-3-2------------------------------------
A:0-3-0-3-5------------5-3-0-3-0-3-2-0---2-3-4-55-33-22-00-
E:-------------------------------------3-------------------


[ Tab from: http://www.guitartabs.cc/tabs/r/rancid/ruby_soho_btab_ver_3.html ]
"Destination now,ruby................
G:------------------------------------------------------
D:--------------------------------------5-0-3-5---------
A:----2-2-2-3-3-3-----------2-2-2-3-3-3-----------------
E:3-3-------------3-3-0-3-3-----------------------------

G:------------------------------------------------------
D:------------------------------------------------------
A:----2-2-2-3-3-3-----------2-2-2-3-3-3-----------------
E:3-3-------------3-3-0-3-3-------------3-3-3-----------
 


Repeat 2x
G:------------------------------------------------------
D:-----------------------5555555555-4-------------------
A:-3-3-3-1-3-3-3-3-1-3-5--------------7-----------------
E:------------------------------------------------------



Figured out by Luiz Manzano (Brasil)
Comments