Rancid - Ruby Soho Chords & Tabs

 

Ruby Soho Chords & Tabs

Rancid Chords & Tabs

Version: 2 Type: Bass Tab 0 ratings
1 star 2 stars 3 stars 4 stars 5 stars
comments

Ruby Soho Bass Tab

The other guy's was all messed up and I made some revisions to the correction,
and I posted this so other would look at it, because the rating is crap for the
other one (wonder why....)

Song:Ruby Soho
Artist: Rancid
Submitted by Drunk In Public


Intro:
G---------------------------------------------------------------------------
D-5-4-2-0------------0-----0------------------------------------------------
A------------2-0----2---22---33-2-------------------------------------------
E -----------------3------------------2-------------------------------------

Verse:
G---------------------------------------------------------------------------
D--------0-2-4-5-4-2-0------------------------------------------------------
A-3---5-------------------0-2-3-3--0-2-0-3--5-5-3-2-------------------------
E---------------------------------------------------------------------------
[ Tab from: http://www.guitartabs.cc/tabs/r/rancid/ruby_soho_btab_ver_2.html ]
G---------------------------------------------------------------------------
D--------------------------0-2-0-------------------0-2-3-5-4-2-0------------
A-0-3-0-3----5-3-2-0----2-----------3-3-0-2-0-3-5-------------------0-2-3-3-
E----------3----------------------------------------------------------------

Chorus:
G---------------------------------------------------------------------------
D-----0-----0---------0-----0-------3-5-3-5---------------------------------
A---2---22---332----2----22----3332-----------------------------------------
E 3--------------3----------------------------------------------------------

Bridge
G---------------------------------------------------------------------------
D-----------------5555555---320---------------------------------------------
A 3313--3313/5--------------------------------------------------------------
E---------------------------------------------------------------------------

Outro:
G---------------------------------------------------------------------------
D-----0-----0--------- 0-----0---------3--------5---------------------------
A---2---22---332----2----22----332------------------------------------------
E 3---------------3---------------------------------------------------------

Order:
Intro 1x
Verse 1x
Chorus 2x
Verse 1x
Chorus 2x
Bridge 2x
Verse 1x
Chorus 2x
No bass until chorus
Chorus 1x
Outro 1x
Comments