Rancid - Ruby Soho Acoustic Chords & Tabs

 

Ruby Soho Acoustic Chords & Tabs

Rancid Chords & Tabs

Version: 1 Type: Tab 0 ratings
1 star 2 stars 3 stars 4 stars 5 stars
comments

Ruby Soho Acoustic Tab

Rancid
Ruby Soho(acoustic arrangement)
Originally off of "...and out come the wolves."
Standard Tuning
Tabbed by Daniel Miller

I had an idea to do an acoustic version of this song when i was playing this
on my acoustic. Its meant for just one guitar. I've never heard Rancid play it acoustically
but I thought it'd be a cool idea, so here goes.


Intro

e--3-2----0-----------------------------------------
B--3-3----3-3--------3-------3-------3-------3------
G-----------2----------0-------0-------0-------0----
D---------------------------------------------------
A-------------------------2-------3-----------------
E-----------------3-----------------------3---------

e--3-3--2-2-22--0-0-------------------------------------------|
B--3-3--3-3-33--3-3--3-3-33----3-------3-------3-------3------|
G--------------------2-2-22------0-------0-------0-------0----|
D-------------------------------------------------------------|
A-----------------------------------2-------3-----------------|
E---------------------------3-----------------------3---------|


Verse 4x's
[ Tab from: http://www.guitartabs.cc/tabs/r/rancid/ruby_soho_acoustic_tab.html ]
e--3-3-3-3-3-3-3-3--5-5-5-5-5-5-5-5--3-3-3-3-3-3-3-3--3-3-3-3-3-3-3-3-|
B--3-3-3-3-3-3-3-3--5-5-5-5-5-5-5-5--3-3-3-3-3-3-3-3--3-3-3-3-3-3-3-3-|
G--5-5-5-5-5-5-5-5--7-7-7-7-7-7-7-7--4-4-4-4-4-4-4-4--5-5-5-5-5-5-5-5-|
D--5-5-5-5-5-5-5-5--7-7-7-7-7-7-7-7--5-5-5-5-5-5-5-5--5-5-5-5-5-5-5-5-|
A--3-3-3-3-3-3-3-3--5-5-5-5-5-5-5-5--5-5-5-5-5-5-5-5--3-3-3-3-3-3-3-3-|
E------------------------------------3-3-3-3-3-3-3-3------------------|


Chorus 2x's

e--3-3--2-2-22--0-0----------3--3--2-2-22--3-3-3--3--3
B--3-3--3-3-33--3-3--3-3-33--3--3--2-2-22--3-3-3--3--3
G--------------------2-2-22--4--4--4-4-44--5-5-5--4--4
D----------------------------5--5--4-4-44--5-5-5--5--5
A----------------------------5--5--2-2-22--3-3-3--5--5
E----------------------------3--3-----------------3--3



Verse 4x's


Chorus 2x's


Bridge

e-0-0--0-0---0-0--0-0---3-3-3-3-3-3-3-3-3-3-3-3-3-3-3-3-|
B-0-0--0-0---0-0--0-0---3-3-3-3-3-3-3-3-3-3-3-3-3-3-3-3-|
G-5-5--3-5---5-5--3-5---0-0-0-0-0-0-0-0-0-0-0-0-0-0-0-0-|
D-5-5--3-5---5-5--3-5---0-0-0-0-0-0-0-0-0-0-0-0-0-0-0-0-|
A-3-3--1-3---3-3--1-3---2-2-2-2-2-2-2-2-2-2-2-2-2-2-2-2-|
E-----------------------3-3-3-3-3-3-3-3-3-3-3-3-3-3-3-3-|


Verse 4x's


chorus 2x's


Bridge 2 4x's

e-3--3--2-2-22-3-3-3--3--3--|
B-3--3--2-2-22-3-3-3--3--3--|
G-4--4--4-4-44-5-5-5--4--4--|
D-5--5--4-4-44-5-5-5--5--5--|
A-5--5--2-2-22-3-3-3--5--5--|
E-3--3----------------3--3--|


Chorus 2 x's



Well thats it. Have some fun. Hats off to everyone.
Comments