Rancid - Roots Radicals Chords & Tabs

 

Roots Radicals Chords & Tabs

Rancid Chords & Tabs

Version: 4 Type: Tab 0 ratings
1 star 2 stars 3 stars 4 stars 5 stars
comments

Roots Radicals Tab

Author/Artist: rancid
Title: roots radicals
Album: and out come the wolves
Transcribed by: paul
JUST FIGURE OUT WHAT ORDER TO DO THE SONG IN AND FIGURE OUT WHEN TO PALM MUTE!
PLEASE DONT SLATE ME FOR HAVING A CONFUSING TAB WHICH DOESNT TELL YOU WHAT
ORDER TO DO THINGS, JUST FIGURE IT OUT!
LOL ITS A SHIT TAB PROGRAM
-|-----------------------------------------|--------------------------------|
-|-----------------------------------------|--------------------------------|
-|-5555555-------------------------5555555-|--------------------------------|
-|-5555555--33333333--5555--33333--5555555-|--------------------------------|
-|-3333333--33333333--5555--33333--3333333-|--------------------------------|
-|----------11111111--3333--11111----------|--------------------------------|
                  intro andverse
|---------------------------------|----------------------X3----------------|
-|---------------------------------|----------------------|----------------|
-|--333333-------------------------|--5555555-------------|-555555---------|
-|--333333--333333-555555555555555-|--5555555-333-5555----|-555555-5555555-|
-|--111111--333333-555555555555555-|--3333333-333-5555----|-333333-5555555-|
-|----------111111-333333333333333-|----------111-3333----|--------3333333-|
   pre corus                          chorus                  last time
[ Tab from: http://www.guitartabs.cc/tabs/r/rancid/roots_radicals_tab_ver_4.html ]
-|-----------------------------88------88--------8--111111111111111--------|
-|-----------------------8-----88-8----88--8-----8--8-8-8-8-8-8-8-8--8-----|
-|-----------------------10b12----10b12----10b12---------------------10b12-|
-|----------333333333333---------------------------------------------------|
-|-////////-333333333333---------------------------------------------------|
-|-////////-111111111111---------------------------------------------------|
   yeah yeapart

-|---------------------------------------------------|----------------------|
-|------------------10br------------------10br-------|----------------------|
-|------------8-10--10br--10-8------8-10--10br--8----|----------------------|
-|-333333333-------------------10-----------------10-|----------------------|
-|-333333333-----------------------------------------|----------------------|
--111111111------------------------------------------|----------------------|

-|---------------------88------88--------8--111111111111111--------|--------|
-|---------------8-----88-8----88--8-----8--8-8-8-8-8-8-8-8--8-----|--------|
-|---------------10b12----10b12----10b12---------------------10b12-|--------|
-|--333333333333---------------------------------------------------|--------|
-|--333333333333---------------------------------------------------|--------|
-!--111111111111---------------------------------------------------|--------|
-|--------------888888--1010101010101010--|---------------------------------|
-|--------------xxxxxx--8-8-8-8-8-8-8-8---|---------------------------------|
-|--------------888888--------------------|---------------------------------|
-|-33333333333----------------------------|---------------------------------|
-|-33333333333----------------------------|---------------------------------|
-|-11111111111----------------------------|---------------------------------|
Comments