Rancid - Roots Radicals Chords & Tabs

 

Roots Radicals Chords & Tabs

Rancid Chords & Tabs

Version: 1 Type: Tab 0 ratings
1 star 2 stars 3 stars 4 stars 5 stars
comments

Roots Radicals Tab

x- palm mute (normally of the note after it)
h- hammer
p- pull off
^- bend up
~- bend up and down repeatedly

*Verse
E ----------------------------------------------------------------
B ----------------------------------------------------------------
G -x-x-5-x-x-x-5------------------------------x-x-5-x-x-x-5-------
D -x-x-5-x-x-x-5--x-x-3-x-x-x-3--x-x-5-x-x-3--x-x-5-x-x-x-5-------
A -x-x-3-x-x-x-3--x-x-3-x-x-x-3--x-x-5-x-x-3--x-x-3-x-x-x-3-------
E ----------------x-x-1-x-x-x-1--x-x-3-x-x-1----------------------

*pre chorus          :Guitar 1:
E -------------------------------------------------
B -------------------------------------------------
G -3-----------------------------------------------
D -3-----3-----5-----------------------------------
A -1(8x)-3-----5-----------------------------------
E -------1(8x)-3(16x)------------------------------

*pre chorus        :Guitar 2: (stop every note after its played)
E -6-6-6-6------------------------------------------
B ----------6-6-6-6--8-8-8-8-88888888---------------
G --------------------------------------------------
D --------------------------------------------------
A --------------------------------------------------
E --------------------------------------------------

*Chorus
E -------------------------------------
B -------------------------------------
G -5--5-5-5-5-5-5----------------------
D -5--5-5-5-5-5-5--3--3-3--5--5-5------
A -3--3-3-3-3-3-3--3--3-3--5--5-5------
E -----------------1--1-1--3--3-3------

(chorus) on last time, play
E -----------------------------------------------
B -----------------------------------------------
G -5--5-5-5-5-5-5--------------------------------
D -5--5-5-5-5-5-5--5-5-5-5-5-5-5-----------------
A -3--3-3-3-3-3-3--5-5-5-5-5-5-5-----------------
E -----------------3-3-3-3-3-3-3-----------------
[ Tab from: http://www.guitartabs.cc/tabs/r/rancid/roots_radicals_tab.html ]
*Pre Chorus 2 (after the second verse-guitar 1 stays the same,
but guitar 2 plays...) 
E -6-6-6-6-----------------------------------------------
B ----------6-6-6-6-8-8-8-8-88888------------------------
G ------------------------------------5p4h5--------------
D -------------------------------------------------------
A -------------------------------------------------------
E -------------------------------------------------------

*Break start
E -------------------------------
B -------------------------------
G -5-----------------------------
D -5-----------------------------
A -3-------(pickscrape down)-----
E -------------------------------

*Break            :guitar 1:
E --------------------------------------------------------------
B --------------------------------------------------------------
G -------5---------------------------------3-------5------------
D -3-----5---------------------------------3-------5------------
A -3-----3(16x)---(on the last time, play)-1(16x)--3(16x)-------
E -1(16x)-------------------------------------------------------

*Break              :guitar 2:  (play these notes when the C chord plays)             
E -----------------------------------------------------8^----------------------
B -6h8-8-6h8-8-6h8-8-6-6h8p6-----------------------------8-6-------8^-6-5------
G --------------------------------7-5~----------------------5--5h8--------5~---
D -----------------------------------------------------------------------------
A -----------------------------------------------------------------------------
E -----------------------------------------------------------------------------

*Break end    :guitar 1:
E --------------------
B --------------------
G --------------------
D -3------5-----------
A -3------5-----------
E -1(16x)-3(16x)------

*break end    (over the G chord)   :guitar 2:
E ---------------------------------------------
B -----------6-6-6-6-7-7-7-7-8-8-8-8-----------
G -5-5-5-5-------------------------------------
D ---------------------------------------------
A ---------------------------------------------
E ---------------------------------------------


Song Order:          Thats the song, for any questions, email RoCkY10078@netscape.net
Verse
Pre Chorus
Chorus
Verse
Pre Chorus
Chorus
Break
Verse (start with the regular verse, then play the same notes but no palm muting)
Pre Chorus
Chorus (After playing the chorus once through play the solo part from the
 break over it)
Comments