Rancid - Roots Radicals Chords & Tabs

 

Roots Radicals Chords & Tabs

Rancid Chords & Tabs

Version: 3 Type: Bass Tab 0 ratings
1 star 2 stars 3 stars 4 stars 5 stars
comments

Roots Radicals Bass Tab

#----------------------------------PLEASE NOTE---------------------------------#
#This file is the author's own work and represents their interpretation of the #
#song. You may only use this file for private study, scholarship, or research. #
#------------------------------------------------------------------------------#

Song: Roots Radicals
Artists: Rancid
Album: ...and out come the wolves

Verse
G-------------------------------------------------------------------------
D-------------------------------------------------------------------------
A--0-1-2-3-3-3-3-3-1-0-----------------------------------3-3-3-3-3-3-3-3--
E----------------------3-1-1-1-1-1-0-1-0-3-3-3-3-1-1-1-1------------------
[ Tab from: http://www.guitartabs.cc/tabs/r/rancid/roots_radicals_btab_ver_3.html ]
Verse continued
G----------------------------------------------------------------------
D------0-0-1-1-3-3-----------------------------------------------------
A--1-1------------------0-0-1-1-3-3-----------------------0-0-1-1-2-2--
E-------------------1-1--------------3-3-3-2-3-3-3-2-3-3---------------

Chorus
G----5-2-0------------------------- x3 G----5-2-0----------------------
D----------2---5-3-2--2-3-5-3-2-0--    D----------2---5-5-5-5-3-2-0----
A--3-------------------------------    A--3-------------------------3--
E----------------------------------    E-------------------------------

Interlude 
(Yeah, Yeah      Yeah, Yeah, Yeah,  ...  )
G--------------------------------------------------5-5-3-3-2-2-0-0-- x3
D--3-3-1-1-0-0-------------------------2-2-3-3-5-5------------------
A--------------3-3-----0-0-1-1-2-2-3-3------------------------------
E------------------1-1----------------------------------------------

G----------------------------------------------------------------------
D--3-3-1-1-0-0---------------------------------------------------------
A--------------3-3-----0-0-1-1-3-3-----------------0-0-0-0-1-1-2-2--3--
E------------------1-1-------------3-3-3-3-3-3-3-3---------------------

mc_call@email.it for questions

Have fun!!!
Comments