Rancid - Roots Radicals Chords & Tabs

 

Roots Radicals Chords & Tabs

Rancid Chords & Tabs

Version: 2 Type: Bass Tab 0 ratings
1 star 2 stars 3 stars 4 stars 5 stars
comments

Roots Radicals Bass Tab

Song Title: Roots Radicals
Artist: Rancid
----------------------------------------------


The verse riff basically follows the guitar with a few exceptions:
Repeat throughout the verses (figure out the sixteenth note rhythms on your own,
 these are all just eight notes)

VERSE
       I started thinkin' . . . 
-------------------------------------------------------------------
-------------------------------------------------------------------
-0-1-2-3-3-3-3-3-1-0-----------------------------------3-3-3-3-3-3-
---------------------3-1-1-1-1-1-0-1-0-3-3-3-3-1-1-1-1-------------

PRE-CHORUS
With the music execution . . .
--------------------------------------------------------------------
-----0-0-1-1-3-3----------------------------------------------------
-1-1-----------------0-0-1-1-3-3-------------------0-0-0-1-1-2-2----
-----------------1-1-------------2-3-3-3-2-3-3-3-2------------------

CHORUS -- The coolest bass part of the song
-----5-2-0----------------------------5-2-0------------------------
-----------2---5--3-2--2-3-5-3-2-0----------2--5--3-2--2-3-5-3-2-0-
-3---------------------------------3-------------------------------
-------------------------------------------------------------------
[ Tab from: http://www.guitartabs.cc/tabs/r/rancid/roots_radicals_btab_ver_2.html ]
-----5-2-0----------------------------5-2-0------------------------
-----------2---5--3-2--2-3-5-3-2-0----------2---5-5-5-5-3-2-0------
-3---------------------------------3---------------------------3---
-------------------------------------------------------------------

BRIDGE -- Another cool riff

Yeah, Yeah     Yeah, Yeah, Yeah Yeah Yeah . . .           (repeat 3 times)
-----------------------------------------------5-5-4-4-2-2-----
------------------------------------2-2-3-3-5--------------5-5-
-----0-0-1-1-3-3-----0-0-1-1-2-2-3-3---------------------------
-1-1-------------1-1-------------------------------------------


-------------------------------------------------------------------
-------------------------------------------------------------------
-----0-0-1-1-3-3-----0-0-1-1-3-3-------------------0-0-0-1-1-2-2-3-
-1-1-------------1-1-------------3-3-3-3-3-3-3-3-3-----------------


That's the riffs of the song. Very easy, but cool to play.
I hope things aren't too messed up, because this is my first tab submission.
I didn't put any measure bars or note values with the tab because, at least 
in my case, whem I get a tab off the internet, I'm already familiar with the
song and all that other stuff just makes it harder to read.  This is tab 
plain and simple--where to put your fingers on the fretboard so you can play 
the song.
So, forget all that other stuff, and enjoy taking the 60 bus!  

Submitted by Josh Caton, bassist for the band Jacob (catonj@mcnet.marietta.edu)

Comments