Rancid - Rancid 1993 Chords & Tabs

 

Rancid 1993 Chords & Tabs

Rancid Chords & Tabs

Version: 1 Type: Tab 0 ratings
1 star 2 stars 3 stars 4 stars 5 stars
comments

Rancid 1993 Tab

   
 Rancid
 Full Self titled album


ADINA
     F    G    C
e|---X----X----X----|
B|---X----X----X----|
G|---X----X----5----|
D|---3----5----5----|
A|---3----5----3----|
E|---1----3----X----|

e|-6-6-8-|  x4  
B|-6-6-8-|
G|-------|
D|-------|
A|-------|
E|-------|

e|-6666666666666666666-3-15-15-15-15-15-15-15-15-15-15-15-15-|
B|-6666666666666666666-3-15-15-15-15-15-15-15-15-15-15-15-15-|
G|-----------------------------------------------------------|
D|-----------------------------------------------------------|
A|-----------------------------------------------------------|
E|-----------------------------------------------------------|

C                                      F                     C
I wanna go where the action is I wanna fly through the urban blight
                                           F            C
I wanna live like a shadow in the dark and only move at night
                                      F               C
A story bought a one story house that lets the winter bleed
                         F           C
Twenty-one years old and no money to read

  (Keep playing "G" all through chorus)
G 
How'd she know the roof would cave in
Over and over again
Beat up and bruised a record that's broken
Adina's crying again

C                                      F                   C
Beat up chevy with a trailor in tow is what they call home now
                                       F              C
One more hill or river to cross on the way to another town
                       F               C
Crying in her beer and always running away
                              F                 C
Maybe not so much running but hoping for better days

  (Keep playing "G" all through chorus)
G 
How'd she know the roof would cave in
Over and over again
Beat up and bruised a record that's broken
Adina's crying again


C       e|-6-6-8-|  x4  
        B|-6-6-8-|
        G|-------|
        D|-------|
        A|-------|
        E|-------|

e|-6666666666666666666-15-15-15-15-15-15-15-18-18-18-18-18-18-18-18-|
B|-6666666666666666666-15-15-15-15-15-15-15-18-18-18-18-18-18-18-18-|
G|------------------------------------------------------------------|
D|------------------------------------------------------------------|
A|------------------------------------------------------------------|
E|------------------------------------------------------------------|

C                                      F                     C
I wanna go where the action is I wanna fly through the urban blight
                                           F            C
I wanna live like a shadow in the dark and only move at night
                                      F               C
A story bought a one story house that lets the winter bleed
                         F           C
Twenty-one years old and no money to read

  (Keep playing "G" all through chorus)
G 
How'd she know the roof would cave in
Over and over again
Beat up and bruised a record that's broken
Adina's crying again

C       e|-6-6-8-|  x4  
        B|-6-6-8-|
        G|-------|
        D|-------|
        A|-------|
        E|-------|

note: b=bend
e|-6666666666666666666-8-7-6-11-11-11-8b---------|
B|-6666666666666666666-------11-11-11-8b---------|
G|-----------------------------------------------|
D|-----------------------------------------------|
A|-----------------------------------------------|
E|-----------------------------------------------|




*************************************************************************

HYENA


    G    B    C    F    Bb   Eb   D
e---X----X----X----X----X----X----X----
B---X----X----X----X----X----X----X----
G--------4----5---------3----8----7----
D---5----4----5----3----3----8----7----
A---5----2----3----3----1----6----5----
E---3----X----X----1----X----X----X----

G Eb G Eb G Eb C D
G Eb G Eb G Eb C D

G                   B    C  B    C     G                          BCBC
I'm money broke and it's no joke can't cope use the rope this time
G                    B   C     B       C           G                    BCBC
Knuckle up buckle up the rides getting rough but I will not lose my mind
G                B     C    B  C       G                           BCBC
I asked her if I could come in and the first thing they said was no
G                             B C     B    C
If I can't come in that means I can't come back
G     B C     B  C
I got nowhere to go

F     C       Bb                   F
I'm a hyena I fight for the lion's share
F   C         Bb                F
Sometimes the lions share ain't there

F     C       Bb                   F
I'm a hyena I fight for the lion's share
F   C         Bb                F
Sometimes the lions share ain't there

G           B     C     B    C     G                 BCBC
Absent from political authority an animal I've become
G              B   C     B   C      G                   BCBC
Total disorder and confusion is the lifestyle that I run
G                      B    C   B C    G                    BCBC
Permit me to do what I want and I will I'm a nomad to travel
G        BCBC  G    BCBC      
Concrete glass stone and gravel

F     C       Bb                   F
I'm a hyena I fight for the lion's share
F   C         Bb                F
Sometimes the lions share ain't there

F     C       Bb                   F
I'm a hyena I fight for the lion's share
F   C         Bb                F
Sometimes the lions share ain't there it ain't there!

G Eb G Eb G Eb C D
G Eb G Eb G Eb C D

G                 C        Bb    
Everyday it's the same sad story 
G                              C  Bb
Getting ganked I wish it would end
G                         C         Bb
In life's commisary I'm a bad missionary 
G                      Eb  Bb
And a wicked message I send
G                  C         Bb
Fighting like kids losing my shit 
G                          C   Bb
That's not the way I wanna live
G                    C        Bb
Who can I trust in a world of green 
G                               C   Bb
When I'm taught to take and not give
Eb...         Bb...
Who can I trust when I'm taught to take and not give?

Solo:
e-1-(slide to-3--1-(slide to)-3--3-2-1--1-(slide to-3--1-(slide to)-3--3-2-1-
B-1-(slide to-3--1-(slide to)-3--3-2-1--1-(slide to-3--1-(slide to)-3--3-2-1-
G----------------------------------------------------------------------------
D----------------------------------------------------------------------------
A----------------------------------------------------------------------------
E----------------------------------------------------------------------------

G...
See there's nothing you can say that's gonna change my mind fuck you

F     C       Bb                   F
I'm a hyena I fight for the lion's share
F   C         Bb                F
Sometimes the lions share ain't there
F     C       Bb                   F
I'm a hyena I fight for the lion's share
F   C         Bb                F
Sometimes the lions share ain't there

G Eb G Eb G Eb C D
G Eb G Eb G Eb C D

G                   B    C  B    C     G                          BCBC
I'm money broke and it's no joke can't cope use the rope this time
G                    B   C     B       C           G                    BCBC
Knuckle up buckle up the rides getting rough but I will not lose my mind

G                B     C    B  C       G                           BCBC
I asked her if I could come in and the first thing they said was no
G                             B C     B    C
If I can't come in that means I can't come back
G     B C     B  C
I got nowhere to go

F     C       Bb                   F
I'm a hyena I fight for the lion's share
F   C         Bb                F
Sometimes the lions share ain't there
F     C       Bb                   F
I'm a hyena I fight for the lion's share
F   C         Bb                F
Sometimes the lions share ain't there

F             C     Bb          F
Sometimes the lions share ain't there



*************************************************************************



DETROIT


     A    D    e    B
e|---X----X----X----X----|
B|---X----X----X----X----|
G|---X----7----9----X----|
D|---7----7----9----9----|
A|---7----5----7----9----|
E|---5----X----X----7----|

INTRO SOLO:
note: p=pull off
      h=hammer on
      /=# of times note(s) are played
      s=slide
                   
e|------------------X---X----------------|
B|------------------X---X----------------|
G|------------------X---X----------------|
D|----------9-11-11-9---7----------------|
A|-7---9h11---------9---7------7-9-9-7---|
E|------------------7---5--7h9-----------|

e|-7s12//////////-7//////////-8p7p5---------------555----------15-15-15-15-|
B|-7s12//////////-7//////////-------8p7p5---------555-12-12-12-15-15-15-15-|
G|----------------------------------------8p7p5h4-----13-13-13-------------|
D|-------------------------------------------------------------------------|
A|-------------------------------------------------------------------------|
E|-------------------------------------------------------------------------|

e|-7s12//////////-7//////////-8p7p5-------8p7p5-------8p7p5-------8p7p5-------
B|-7s12//////////-7//////////-------8p7p5-------8p7p5-------8p7p5-------8p7p5-
G|----------------------------------------------------------------------------
D|----------------------------------------------------------------------------
A|----------------------------------------------------------------------------
E|----------------------------------------------------------------------------

-15p14p12----------15p14p12----------12-121212-|
----------15p14p12----------15p14p12-12-121212-|
-----------------------------------------------|
-----------------------------------------------|
-----------------------------------------------|
-----------------------------------------------|

A                D                    e        D
Didn't know what time it was 'til the sun went down
A        D        e          D
Detroit, Michigan on the bus downtown
A                D        e  D
Last night I was fighting on the street
A                        D                  e          D
But tonight I got a girl next to me in this cold world she brings me heat!

A  e        D
      Got a good feeling about a bad city tonight
A  e        D                                    A   e  D 
      Got a good feeling everything's gonna be alriiiiiiight
A        e                D                    e       
Some run some fight got a good feeling about a bad city tonight

A           D               e                  D
Detained in illegal custody spent the night in jail
       A                    D      e            D 
With a drunken priest and a hooker five hundred dollars bail
A           D                     e                     D
Nobody knew who from the crew was standing there in the street like that
A         D                    e                 D
I hit the ground didn't make a sound and it just goes like that

A  e        D
      Got a good feeling about a bad city tonight
A  e        D                                    A   e  D 
      Got a good feeling everything's gonna be alriiiiiiight
A        e                D                    e       
Some run some fight got a good feeling about a bad city tonight

SOLO:
note: f=half bend
      F=full bend
e|----------------------888----------888-5-8-7-5---------|
B|-5f-5f-5-5f-5-5f-5f-5-888-5f-5f----888-5-8-7-5-7-5-----|
G|-8f-8f-8-8f-8-8f-8f-8-----8f-8f-7F-------------7-5---5-|
D|---------------------------------------------------7-5-|
A|---------------------------------------------------7---|
E|-------------------------------------------------------|

e|----------------------------------------------------------|
B|-------------------------------8--------------------------|
G|-7F-7F-7F-7F-5------5f----5-7F---7F-7--7--5---------555-7-|
D|---------------7-7------7-------------------5-7-5-7-------|
A|----------------------------------------------------------|
E|----------------------------------------------------------|

e|-----------------|
B|------5----------|
G|-5-7F---7F-5-5---|
D|-----------------|
A|---------------7-(let ring into feedback as bass plays intro again)
E|-----------------|

A                        D
Bus dropped me off and I had to cough
      e                        D
Cuz I couldn't breathe because I got ripped off
A                D                      e
Couldn't realize being satisfied cuz it runs so thin
    D
And that's why I'm pissed off
A                 D
She had the money I had the time
e                     D
She had the champagne I had the cisco wine
A               D                  e
She said do you wanna come cuz you better hurry 
D
We'll have hell to pay

A  e        D
      Got a good feeling about a bad city tonight
A  e        D                                    A   e  D 
      Got a good feeling everything's gonna be alriiiiiiight
A        e                D                    e          A(end)
Some run some fight got a good feeling about a bad city tonight




**************************************************************************



RATS IN THE HALLWAY


     F    Bb   C    G    D
e|---X----X----X----X----X----|
B|---X----X----X----X----X----|
G|---X----3----5----X----7----|
D|---3----3----5----5----7----|
A|---3----1----3----5----5----|
E|---1----X----X----3----X----|

RIFF A:
e|-6-6-6-6-8-6-6-6-6-6-8-8-8-8-8-11-11-11-11-11-|
B|-6-6-6-6-8-6-6-6-6-6-8-8-8-8-8-10-10-10-10-10-|
G|----------------------------------------------|
D|----------------------------------------------|
A|----------------------------------------------|
E|----------------------------------------------|

e|-6-6-6-6-8-6-6-6-6-6-8-11-8------11-8------11-8------11-8------|
B|-6-6-6-6-8-6-6-6-6-6-8------11-8------11-8------11-8------11-8-|
G|---------------------------------------------------------------|
D|---------------------------------------------------------------|
A|---------------------------------------------------------------|
E|---------------------------------------------------------------|

e|-6-6-6-6-8-6-6-6-6-6-8-8-8-8-8-11-11-11-11-11-|
B|-6-6-6-6-8-6-6-6-6-6-8-8-8-8-8-10-10-10-10-10-|
G|----------------------------------------------|
D|----------------------------------------------|
A|----------------------------------------------|
E|----------------------------------------------|

                                                            Stop! (bass riff)
e|-6-6-6-6-8-6-6-6-6-6-8-11-8------11-8------11-8------11-8------|
B|-6-6-6-6-8-6-6-6-6-6-8------11-8------11-8------11-8------11-8-|
G|---------------------------------------------------------------|
D|---------------------------------------------------------------|
A|---------------------------------------------------------------|
E|---------------------------------------------------------------|


C           F       C               F        
Knock knock come in you wanna fight I'm gonna win
C                 F
I'll take you out in a minute
C               F
Step in my flat see what's in it

C                         F
I live in the land of the welfare state
   C               F
My flat used to be section eight
C                       F
Now it's a rat infested cocaine run
   C                        F
My whole world plays like a broken drum

Bb     F       C   Bb        F    C
Junkie drunken bum yeah yeah yeah rats in the hallway again

C                 F
Get up go out go ahead and ride away
C                  F
Get up sit up your bed today
C                F
Kick up rip this place apart
C                      F
Even when I finish I'm back to the start

           C       F
I'm out of line on Adeline street
C                    F
Heat don't keep this crooked beat
  C F
4AM no waves breaking 
       C                  F
What's left of the PM the AM's taken

Bb     F       C   Bb        F    C
Junkie drunken bum yeah yeah yeah rats in the hallway again

C                         F
Outside my gate my crew's drinking a 40
C                         F
Asked me if there's still rats in the hallway I said
C               F
Some things are like the weather
     C                    F
They never seem to change for the better

          C                   F
This girl came to me said she do me no harm
C                              F
Rolled up her sleeve showed me tracks on her arm
C                           F
I said what's your name she said it was Maya
         C           F
She said Tim I wanna take you higher

Bb     F       C   Bb        F    C
Junkie drunken bum yeah yeah yeah rats in the hallway again

SOLO:
note: b=bend
      /=# of times note is hit
e|-8b--////////////////-----------------------------|
B|-8b--////////////////-8-8-8-8---------------------|
G|-10b-////////////////---------10-10-10-10-8-8-8-8-|
D|--------------------------------------------------|
A|--------------------------------------------------|
E|--------------------------------------------------|

e|--------------------------------------------------|
B|-----8-8-----11-11--------------------------------|
           [-hold bend--]
G|-10b-----10b-------(10)-8----8-10-8-10b-8---------|
D|--------------------------10--------------10-8----|
A|-----------------------------------------------10-|
E|--------------------------------------------------|

D
Zombie walking kid on his own no moral
    D
Mr. High leaves the body in comes Mr. Withdrawl
D
Pain is the only thing the body will allow
    D                      D
The kid wants to dance the gangster knows how

C                      GF          G
Johnny bought some dope down on Market
C                G   F        G
Shoot up boot up the human target
C                   G       F            G
Hit the dirty spike when he hit the scene
     C                 GF              G
It's easy to stay dirty nothing's clean
       C     GF             G
He's a writer tags up Jackyl
C                    GF                 G
Jackyl just clamped unclampable shackles

                                       RIFF B (r/b):
                                       e|-8(slide down)-|
                                       B|-8(slide down)-|
                                       G|---------------|
                                       D|---------------|
                                       A|---------------|
                                       E|---------------|
C                    GF                     
Rout up shoot up it's money it goes like that
            r/B
Rat tat tat kid got shot point black in the back
            r/B
My landlord said not to be bumming
         r/B
He was a cocaine stoop and he had it coming 
          r/B
He had it coming? He's only 12 years old
    r/B
    C                           F
The kid was in the blizzard got shot for being cold
C                           F
It don't seem right tonight hit the lights alright
C                     F
Watch the roaches run into the darkest room

Bb     F       C   Bb        F    C
Junkie drunken bum yeah yeah yeah rats in the hallway again



*******************************************************************************


[ Tab from: http://www.guitartabs.cc/tabs/r/rancid/rancid_1993_tab.html ]
ANOTHER NIGHT
Intro:
E-------------------------------------------
B-------------------------------------------
G--7-------5-------7-6-7-------5-------7-6--
D--7---3---5---5---7-6-7---3---5---5---7-6--
A--5---3---3---5---5-4-5---3---3---5---5-4--
E------1-------3-----------1-------3--------
   D   F   C   G   D-
C#-D  F   C   G   D-
C#Verse:D  F  C  G (4x)Chorus:
E------------------
B------------------
G--5-----------5---
D--5---5---3---5---
A--3---5---3---3---
E------3---1-------   
C   G   F   C
Over bass solo:D  F  C  G



****************************************************************************



ANIMOSITY


     F    F#   G    G#   A    A#   B    C    C#   D
e|---X----X----X----X----X----X----X----X----X----X----|
B|---X----X----X----X----X----X----X----X----X----X----|
G|---X----X----X----X----X----3----4----5----6----7----|
D|---3----4----5----6----7----3----4----5----6----7----|
A|---3----4----5----6----7----1----2----3----4----5----|
E|---1----2----3----4----5----X----X----X----X----X----|

F#  F  A# B
F#  F  A# B
F#  F  A# B
F#  F  A# B

D              A    C           G
Break down the fear I got my animosity I'm gonna
D              A    C           G
Break down the fear I got my animosity I'm gonna
D    A    C        G              D    A    C        G
          Break it down I'm gonna           break it down

F#
Armageddon is coming so you better start running
          F                               A# B
Cause the big wave is coming to the shore

F#
No surprise you see through the lies 
     F                                A# B
Of a system that's rotten to the core

F#
High tech surveilence paranoia and violence
F                        A# B
Keeping the city at calm 

F#
Break it down break it down tear it apart
    F
The city's going off like a bomb!

D              A    C           G
Break down the fear I got my animosity I'm gonna
D              A    C           G
Break down the fear I got my animosity I'm gonna
D    A    C        G              D    A    C        G
          Break it down I'm gonna           break it down

F#                                    F
Helicopters coming down on my tonight
   F#                                              F
My brother's selling cocaine he knows how to fight

F#
Hounded and harassed in a power elite bought
F
Sun ain't arise so I abide by my route

F#
Helicopters coming down on my tonight
   F
My brother's selling cocaine he knows how to fight

D              A    C           G
Break down the fear I got my animosity I'm gonna
D              A    C           G
Break down the fear I got my animosity I'm gonna
D    A    C        G              D    A    C        G
          Break it down I'm gonna           break it down

(random feedback during bass/siren solo)

F#   A   G#   D
F#   A   G#   D  C#           C#           C# C# C#
                    Tonight's   the night!

F#                                F                            A# B
I remember a cold December when I heard the revolution of rock
F#
Didn't hear what they were saying I ran through the mayhem
     F                        A# B
Of a police state on my block

F#
High tech surveilence paranoia and violence
F                        A# B
Keeping the city at calm 

F#
Break it down break it down tear it apart
    F           
The city's going off like a bomb!

D              A    C           G
Break down the fear I got my animosity I'm gonna
D              A    C           G
Break down the fear I got my animosity I'm gonna
D    A    C        G              D    A    C        G     F# A B C B A F#
          Break it down I'm gonna           break it down



***************************************************************************



WHIRLWIND


     e   F   G   C
e|---X---X---X---X---|
B|---X---X---X---X---|
G|---X---X---X---5---|
D|---2---3---5---5---|
A|---2---3---5---3---|
E|---0---1---3---X---|

*NOTE: /=# of times note or chord is hit i.e G//=hit G 3 times

INTRO

G... C CF/ e/ C CF/ e/ C CF/ e/ C CF/ e/

VERSE

C                   e                F            C
Every city's got an artery where the blood breaks down
C              e               F               C
An avenue or a boulevard and a boy who wears a crown
C             e        F           C
Indignant lifestyles imply lack of means
C                 e          F                 C
Dogmatical authoritarians dictate the city's remains

PRECHORUS

riff A (r/a):

e|-1///////-3///////-|
B|-------------------|
G|-------------------|
D|-------------------|
A|-------------------|
E|-------------------|

(r/a)     (r/a)
A promise to go to heaven won't put salvation in sight

CHORUS

F    C       G      F       G       C      F 
Whirlwind is coming    whirlwind is coming
F                  C                G            F
A promise to go to heaven won't put salvation in sight
F    C       G      F       C CF/ e/ C CF/ e/ 
Whirlwind is coming down on me

BRIDGE

(bass w/low feedback on C from guitar)...

(r/a)                              
My old man worked his troubled life in a nowhere dead end job

(r/a)
He drank and I'll be damned if that's me having my dreames robbed

(r/a)
The working class carries a country that's been rotting inside for years

(r/a)
When the rigs cuffed my old man in the front yard I saw thru my eyes of tears



******************************************************************************************


REJECTED -


   INTRO
e-|-----------------------------------------------------------------------------|
B-|-----------------------------------------------------------------------------|
G-|-9-----------------9----------------99999999-----------99999999--------------|
D-|-9-(bass)-999-777--9-(bass)-999-777-99999999-9999-7777-99999999-9999-7777--9-|
A-|-7--------999-777--7--------999-777-77777777-9999-7777-77777777-9999-7777--9-|
E-|----------777-555-----------777-555----------7777-5555----------7777-5555--7-|

E   ---------|
B-|-7--7--7--|
G-|-9^-9^-9^-|

   VERSE 
e-|------------------------------------------------------------------------|
B-|------------------------------------------------------------------------|
G-|------------------------------------------------------------------------|
D-|-99999999-55555555------------------99999999-55555555-------------------|
A-|-77777777-33333333-5555555-77777777-77777777-33333333-55555555-77777777-|
E-|-------------------3333333-55555555-------------------33333333-55555555-|
    p.m.------------------------------------------------------------------

   CHORUS
e-|------------------------------------------------------------------------------------|
B-|------------------------------------------------------------------------------------|
G-|-9999-5555-----------9999-5555-----------9999-5555-----------9999-5555--------------|
D-|-9999-5555-5555-7777-9999-5555-5555-7777-9999-5555-5555-7777-9999-5555-5555-7777--9-|
A-|-7777-3333-5555-7777-7777-3333-5555-7777-7777-3333-5555-7777-7777-3333-5555-7777--9-|
E-|-----------3333-5555-----------3333-5555-----------3333-5555-----------3333-5555--7-|

   INTERLUDE
e-|-0000000000000000-------------------0000000000000000-------------------|
B-|-0000000000000000-44444444-22222222-0000000000000000-44444444-22222222-|
G-|-1111111111111111-44444444-22222222-1111111111111111-44444444-22222222-|
D-|-2222222222222222-44444444-22222222-2222222222222222-44444444-22222222-|
A-|-2222222222222222-22222222-00000000-2222222222222222-22222222-00000000-|
E-|-0000000000000000-------------------0000000000000000-------------------|

   BRIDGE (Matt singing)
e-|---------------------------------------------------------------------------------|
B-|---------------------------------------------------------------------------------|
G-|---------------------------------------------------------------------------------|
D-|-99999999-----------99999999-----------99999999-----------99999999-------------9-|
A-|-77777777-9999-7777-77777777-9999-7777-77777777-9999-7777-77777777-9999-77777--9-|
E-|----------7777-5555----------7777-5555----------7777-5555----------7777-55555--7-|



******************************************************************************************

INJURY


    G    B    C    F    E#   L    C#   G#
e---X----X----X----X----X----X----X----X-
B---X----X----X----X----X----X----X----X-
G--------4----5---------10---12---6------
D---5----4----5----3----10---12---6----6-
A---5----2----3----3----8----11---4----6-
E---3----X----X----1----X----X----X----4-

Introx4

C C# B G#

B                        E#              L
Excuse me while I pull a knife out of my back
B                        E#          L
How could I ever trust a person like that
B                     E#             L
Alongside the slow is someone movin' faster
B                          E#        L    E# L E# L E# L
Behind the warm image is a cold cold bastard

B                           E#             L
Corporate liberate bull*** ruling ***ing class
B                           E#               L
Take your ***ing money and shove it up your ass
B                           E#            L
Take your ***ing lies I've had enough of you
B                 E#         L
All the *** that you put me through

    F             C
I'm injured   Injury (Yeah yeah yeah)
    F             C     G
I'm injured   Injury (Woah)

I look for the truth, it's getting hard to find
Money grabbin' dragon and the tie you hide behind
I'm so ***ing stupid, with you I was a buyer
I believed in you, you decieving liar

Excuse me while I pull a knife out of my back
How could I ever trust a person like that
Corporate liberate bull*** ruling ***ing class
Take your ***ing money and shove it up your ass

I'm injured   Injury (Yeah yeah yeah)
I'm injured   Injury (Woah)



******************************************************************************



THE BOTTLE


     G    A    C    D
e|---X----X----X----X----|
B|---X----X----X----X----|
G|---X----X----5----7----|
D|---5----7----5----7----|
A|---5----7----3----5----|
E|---3----5----X----X----|

RIFF A:
note: b=bend
e|-3b-6b-|          e|-3b-6b-|         e|-3b-6b-|          e|-3b-6b-5-|
B|-------|          B|-------|         B|-------|          B|---------|
G|-------|          G|-------|         G|-------|          G|---------|
D|-------|          D|-------|         D|-------|          D|---------|
A|-------|          A|-------|         A|-------|          A|---------|
E|-------|          E|-------|         E|-------|          E|---------|
           (bass)              (bass)              (bass)                (bass)

D     A        G          D
Climb in climb in climb inside me 
D A  G D
Paaaaaaain
D     A        G          D
Climb in climb in climb inside me 
D A  G D
Paaaaaaain

D                         C
Another night of drinking another night of being
G                           D
Out of my head I don't know where I was last night
D                            C
Drinking on an empty stomach or on an empty mind
G                               D
It makes no difference when I'm way outta line

C
Things I can't remember come back to haunt me 

Alot of people out there seem to want me
A
Climb in the bottle and never come out

D     A        G          D
Climb in climb in climb inside me 
D A  G D
Paaaaaaain
D     A        G          D
Climb in climb in climb inside me 
D A  G D
Paaaaaaain

D                  C
I may know nothing but I'm good at something
G                      D
I will drink until the sun comes up no more
D                           C
One of these days I'm gonna come out of my haze better
G                     D
Hurry up it's getting harder to come back

C
Things I can't remember come back to haunt me 

Alot of people out there seem to want me
A
Climb in the bottle and never come out

D     A        G          D
Climb in climb in climb inside me 
D A  G D
Paaaaaaain
D     A        G          D
Climb in climb in climb inside me 
D A  G D
Paaaaaaain

(RIFF A)

D     A        G          D
Climb in climb in climb inside me 
D A  G D
Paaaaaaain
D     A        G          D
Climb in climb in climb inside me 
D A  G D
Paaaaaaain

          A
e|-3b-6b-|
B|-------|
G|-------|
D|-------|
A|-------|
E|-------|



**************************************************************************



TRENCHES -Chords


    G    G#   C    F    Bb   A    D    A#  F#
e---X----X----X----X----X----X----X----X---X-
B---X----X----X----X----X----X----X----X---X-
G-------------5---------3----X----7----------
D---5----6----5----3----3----7----7----8---4-
A---5----6----3----3----1----7----5----8---4-
E---3----4----X----1----X----5----X----6---2-


Intro

D D A# A G F#  C C G# G F# F

G
Nineteen-eightyseven
C    C#
At a seven-eleven
G
Police out lookin' for problems
C          C#
But I'm no average hoodlum

G                                           C
Still runnin' from the pigs so it seems to me
C                                       G
This is not the land of love and liberty
G                                    C
It's more like a waiting room in hell
C         C#                    F
Drink a Quart and watch me dwell

F         C  Bb  F          C        Bb
I got it right   Out in the trenches tonight
F         C  Bb  F          C        Bb
I got it right   Out in the trenches tonight

Glass towers rise above the filth and the pain
I'm a moral degenerate feel my pain
Passed out in a squat on mission
That night I was shocked into submission

Straight down straight down to hell i head
System of sewers is where I lay my head
People on their way are like on a different dimension
I need no correction

I got it right   Out in the trenches tonight
I got it right   Out in the trenches tonight

D D A# A G F#  C C G# G F# F


**************************************************************************


HOLIDAY SUNRISE


    Z    B    C    e    A        D
e---X----X----X----X----X--------X----
B---8----X----X----X----X--------X----
G---7----4----5----9----X--------7----
D---5----4----5----9----7--------7----
A--------2----3----7----7--------5----
E--------X----X----X----5--------X----

introx2                              
B B B B A let this chord ring E C       ----------- E C B B B B B
                                        --8-7------
                                        -------9--7
                                        -----------
                                        -----------
                                        -----------
A           D
So I packed everything I owned
A                        D                 Z D
Midnight Christmas Eve a kid could feel alone
A                    D
I drink my scotch my mind goes astray
A                      D                Z D
Midnight Christmas Eve starts out in a way

B
I cried when I had no shoes
Till' I met the man with no feet
It's just a

A        D  A
Holiday sunrise
A           D  A
I suddenly realized
A        D   A
I got no alibis
A        D  A
Holiday sunrise



****************************************************************



UNWRITTEN RULES -Chords


          C    F    Bb   Fii  D
e---------X----X----X----X----X----
B---------X----X----X----X----X----
G---------5---------3----10---7----
D---------5----3----3----10---7----
A---------3----3----1----8----5----
E---------X----1----X----X----X----

Intro
B-9-7-9-7-7-9-7-9-7-9-7-7-9-7-9/12
F Bb F Bb F Bb F Bb
B-9-7-9-7-7-9-7-9-7-9-7-7-9-7-9/12


F             C
Kick the kick drum
  Bb                        Fii
Increase the weight of the sound
    F                    C             Bb               Fii
The dialogue of maximum decibles is enough to move the fucking ground
          F           C         Bb                 Fii
I'm gonna amplify the rage of a class that's not inferior
F           C             Bb            Fii
The message in the volume this song's a carrier

C
Unwritten rules
Bb
Rules understood
C
Unwritten rules
Bb
Boomin' out the speakers and amps in the hood



**************************************************************************


UNION BLOOD


    G    B    C    F    Bb   Eb   D    C#
e---X----X----X----X----X----X----X----X
B---X----X----X----X----X----X----X----X
G--------4----5---------3----8----7----6
D---5----4----5----3----3----8----7----6
A---5----2----3----3----1----6----5----4
E---3----X----X----1----X----X----X----X


G
Blood on the situation 
Bb           C          G
Blood on the street sometimes
Bb                   C
You're gonna hit the cold concrete

During solo, play: G Bb C  F Bb C
  
F
Blood on the situation 
Bb           C          G
Blood on the street sometimes
Bb                   C
You're gonna hit the cold concrete

VERSE 2 MISSING 

F
Blood on the situation 
Bb           C          G
Blood on the street sometimes
Bb                   C
You're gonna hit the cold concrete

F
Blood on the situation 
Bb           C          G
Blood on the street sometimes
Bb                   C
You're gonna hit the cold concrete


********************************************************************


GET OUT OF MY WAY

    e    D    C#   B    A
e---X----X----X----X----X----
B---X----X----X----X----X----
G---9----7----6----4---------
D---9----7----6----4----7----
A---7----5----4----2----7----
E---X----X----X----X----5----


(drumroll) e...

EEEEE D C# B AA C# B

e
Don't wanna hurt you or cause any trouble but
    A                B
Get outta my way get outta my way
e
Tryin to dance here so move on the double said
    A                B
Get outta my way get outta my way

C#                         A
Don't want your lies and I don't want your rat race
C#
I don't see any fun
   B
In getting fucked up around this place

e
I bleed as much as you
    A            C#  B
Get outta my way get outta my way


EEEEE D C# B AA C# B

e
Rich kid rich kid get outta my hair
A                    B
Get outta my way get outta my way
e
I'll sing what I'll sing and I'll wear what I'll wear
    A                B
Get outta my way get outta my way

C#                          A
I try to love mankind and I try to do what's right
    C#                   B
But I can't do anything, anything with you standing in my light

e
Got a uniform all you need is a badge
A                C# B
Get outta my way get outta my way


EEEEE D C# B AA C# B

e
Don't wanna hurt you or cause any trouble but
    A                B
Get outta my way get outta my way
e
Tryin to dance here so move on the double said
    A                B
Get outta my way get outta my way

C#
Who do you think you are
A
Do you think you're some kinda cop
C#                     B
Why did you come along you're a fuckin' cop!

C#    e    A   B
Ohhhhhhhhhhhhhhhh

e
Kid get outta my way kid get outta my way
A                    B
Kid get outta my way kid get outta my way (repeat)

C#  A      C# B   e
Get out of my way!
******************************************************************

Shit that took me a long time. you better like it! please rate.
Comments