Rancid - Radio Chords & Tabs

 

Radio Chords & Tabs

Rancid Chords & Tabs

Version: 3 Type: Tab 0 ratings
1 star 2 stars 3 stars 4 stars 5 stars
comments

Radio Tab

Band Name: Rancid
Song Name: Radio
Tabbed By: Terry Sims (Masterofdarknes)
Email: Floyd_Fan@teenspot.com

Tuning: Normal

Intro

|--------------2-----2--2---2----------3----3--3--3-----------------|
|--3----3---0--2-----3--3---3----------3----3--3--3--3-3--3--3-3----|
|--2----2---0--2-----4--4---4---2--0---0----0--0--2--2-2--2--0-2----|
|--0----0---0--2-----4--4---4----------0----0--0--0--0-0--0--0-0----|
|--------------2-----2--2---2---------------------------------------|
|-------------------------------------------------------------------|

|--2----2---2--2--2-------------------------3---3--2----2--3--------|
|--3----3---3--3--2--3----3----3---3---3----3---3--3----3-----3-----|
|--2----2---2--2--2--4----4----2---0---0----0---0--2----2--------2--|
|--0----0---0--0--2--4-----------------0----0---0--0----0-----------|
|-----------------2-------------------------------------------------|
|-------------------------------------------------------------------|

|--2----2----2-----------------3--3----3---3---2---------------------|
|--3----3----2--3---3---3---3--3--3----3---3---3----3-3--0----0------|
|--2----2----2--4---4---4---2--0--0----0---0---2----2-2--0----0------|
|--0----0----2--4---4---4---------0----0---0---0----0-0--0----0------|
|------------2------2-----------------------------------------0------|
|-------------------------------------------------------------0------|

Link/Verse

|--------------------------------------------------------------------|
|--------------------------------------------------------------------|
|--2-----------------------------------------------------------------|
|--2-----------------------------------------------------------------|
|--0---------------------x\\\\\\\\\\\\\\\\\\\\\\\\\-pick-Scrape------|
|------------------------x\\\\\\\\\\\\\\\\\\\\\\\\\------------------|

|--------------------------------------------------------------------|
|--------------------------------------------------------------------|
|--7----7--7--7--7--7--4------4--4--4--4--4--4-----------------------|
|--7----7--7--7--7--7--4------4--4--4--4--4--4----5--5--5--5--5--5---|
|--5----5--5--5--5--5--2------2--2--2--2--2--2----5--5--5--5--5--5---|
|-------------------------------------------------3--3--3--3--3--3---|

|--------------------------------------------------------------------|
|--------------------------------------------------------------------|
|--7--7------7--7--7--7--7--7----------------------------------------|
|--7--7------7--7--7--7--7--7----------------------------------------|
|--5--5------5--5--5--5--5--5----------------------------------------|
|--------------------------------------------------------------------|

Pre-Chorus
[ Tab from: http://www.guitartabs.cc/tabs/r/rancid/radio_tab_ver_3.html ]
|--4/5---5-5-5-5--4-4----4/5---5-5-5-5-5----8--5--------8--5---------|
|--4/5---5-5-5-5--4-4----4/5---5-5-5-5-5----------8--5--------8--5---|
|--------------------------------------------------------------------|
|--------------------------------------------------------------------|
|--------------------------------------------------------------------|
|--------------------------------------------------------------------|

|--8--5--------8--5--------------------------------------------------|
|--------8--5--------8--5--------------------------------------------|
|--------------------------------------------------------------------|
|--------------------------------------------------------------------|
|--------------------------------------------------------------------|
|--------------------------------------------------------------------|

Chorus

|--2----2----2---2---2---2------2----2--2--3--3----3----3----3-------|
|--3----3----3---3---3---3------3----3--3--3--3----3----3----3-------|
|--2----2----2---2---4---4------4----4--4--4--4----4----4----4-------|
|--0----0----0---0---4---4------4----4--4--5--5----5----5----5-------|
|--------------------2---2------2----2--2--5--5----5----5----5-------|
|------------------------------------------3--3----3----3----3-------|

|------2--2------2----2---2---2---2----------------------------------|
|--0---3--3------3----3---3---3---3----------------------------------|
|--0---2--2------2----2---2---2---2----------------------------------|
|--0---0--0------0----0---0---4---0----------------------------------|
|--0-----------------------------------------------------------------|
|--------------------------------------------------------------------|

|----------------------------------------------------2--2--2--2--2--2-|
|--3----3--3-----------------------------------------3--3--3--3--2--2-|
|--2----2--2--4--4------4--4--4--4---4----4---4--4---2--2--2--2--2--2-|
|--0----0--0--4--4------4--4--5--5---5----5---5--5---0--0--0--0--2--2-|
|-------------2--2------2--2--5--5---5----5---5--5--------------------|
|-----------------------------3--3---3----3---3--3--------------------|

Solo

|--------------------------------------------------------------------|
|---------5--------7------8--------7-------7(8)----(7)----5----------|
|--7--------------------------------------------------------------7--|
|--------------------------------------------------------------------|
|--------------------------------------------------------------------|
|--------------------------------------------------------------------|

Outro Chorus

|--2---2-------------------------3--3--3--3--2----2---2--2--2--------|
|--3---3--------------3--3--0----3--3--3--3--3----3---3--3--3--------|
|--2---2---x--4----4--4--4--0----0--0--0--0--2----2---2--2--2--------|
|--0---0---x--4----4--4--4--0----0--0--0--0--0----0---0--0--0--------|
|--0-------x--2----2--2--2-------------------0-----------------------|
|--------------------------------3--3--3--3--------------------------|

|--2----2--x--2------------------3------------------2----------------|
|--3----3--x--2----3-3--3----3---3--------------3--------------------|
|--2----2--x--2----4-4--4----0------0--2-----2-----------------------|
|--0----0--x--2----4-4-------0------0-----0--------------------------|
|--0-------x--2------------------------------------------------------|
|--------------------------------------------------------------------|

Any comments or crit are all welcome @ the email address given (see top of page)
Thanks.
Comments