Rancid - Radio Chords & Tabs

 

Radio Chords & Tabs

Rancid Chords & Tabs

Version: 2 Type: Tab 0 ratings
1 star 2 stars 3 stars 4 stars 5 stars
comments

Radio Tab

   
Artist:Rancid
Song:Radio
Album:Let's Go and Radio Radio Radio

Intro
E-222-----333-222-222-----333-232--|
B-333-----000-333-333-----000-333--|
G-222-444-000-222-222-444-000-222--| 2X
D-000-444-000-000-000-444-000-000--|
A-----222-333---------222-333------|
E---------222-------------222------|

Verse (Palm muted)
E-----------------------------------|
B-----------------------------------|
G-777---------777-777---------777---|
D-777-999-555-777-777-999-555-777-7-| Let Last Chord Ring
A-555-999-555-555-555-999-555-555-7-|
E-----777-333---------777-333-----5-|
[ Tab from: http://www.guitartabs.cc/tabs/r/rancid/radio_tab_ver_2.html ]
Chorus
E-----------------------------------|
B-----------------------------------|
G-777---------777-777---------777---|
D-777-999-555-777-777-999-555-777-7-| Let Last Chord Ring
A-555-999-555-555-555-999-555-555-7-|
E-----777-333---------777-333-----5-|

Pre-Chorus or the next bit
E-33-5555-33-5555-8p7p5-8p7p5-8p7p5--|
B-33-5555-33-5555--------------------|
G------------------------------------|
D------------------------------------|
A------------------------------------|
E------------------------------------|

E-----------------------------------|
B-3-5-7-8-7-8p7-5-3-----------------|
G-----------------------------------| PLay Solo 2X
D-----------------------------------|
A-----------------------------------|
E-----------------------------------|

That's it. A Great song. Please Rate.
Comments