Rancid - Poison Chords & Tabs

 

Poison Chords & Tabs

Rancid Chords & Tabs

Version: 2 Type: Bass Tab 0 ratings
1 star 2 stars 3 stars 4 stars 5 stars
comments

Poison Bass Tab

   
Rancid
"Poison"
Rancid (2000)
By: joe (joemamabudz@aol.com)

Verses:

G:-----------------2-2-2-2-5-5-7-7-9-9-7-7-9-5|
D:---------2-2-2-2----------------------------|
A:-3-3-3-3------------------------------------|
E:--------------------------------------------|

G:-------------5-5-5-5-5-2---2-0----------|
D:-5-3-3-3-3-3-------------3-----2-0------|
A:-----------------------------------3-3-3|
E:----------------------------------------|

Chorus:

G:---------------------------------------|
D:---------------------------------------|
A:-3-3-3-3-3----------0-0-0-0-0----------|
E:----------1-1-1-1-1-----------1-1-1-1-1|

Outro:

G:--------|
D:--------|
A:-3-2-1-0|
E:--------|


===============================================
VERSION 2
===============================================

Song: I Feel Like Making Love
Band: Goldfinger
Album: Darren's Coconut Ass
tabbed by: sweet chuck (puckinfunk@hotmail.com)



Verse:
G:----------------------------------------------------------------
D:----------------------------------------------------------------
A:------4--4------4---4---------------2--2--3--3--2--2--
E:--------------4------------4----3-3-------------------------

Verse cont'd
G:----------------------------------------------------------------
D:-------------6-------------6----------------------------------
A:-----4--4-------4---4---------------2--2--3--3--2--2--
E:---------------------------------3--3-------------------------

Chors
G:---------------------------------------------------------------
D:---------------------------------------------------------------
A:-----x--x---4---x---x---4----x---x---4-----2-----------
E:--------------------------------------------------------2-----
[ Tab from: http://www.guitartabs.cc/tabs/r/rancid/poison_btab_ver_2.html ]
Chors cont'd
G:--------------------------------------------------------------------------
D:--------------------------------------------------------------------------
A:-----2--3--4----2--3--4---2--3--4---2--2------------4------2--
E:------------------------------------------------------2--2--------------
 
repeat all... listen to the song and you'll get it... if you care at all


==================================
VERSION 3
==================================

Song:  POISON
Artist:  RANCID
Album:  RANCID  2000
Tabbed By:  DAN HAVOC, BASSIST FOR THE NEUTRALS

VERSES 1,2

G:---------------------------------5-5-5-5-7-9-7-5-7-5----5-------------------
--------5-9-7-5------------------------
D:---------------5---7-7-7-7-7----------------------------7-------------------
---7-7-7------------7-5------------------
A:---3>---7>------------------------------------------------------7-8-8-8-8-8-
-------------------------8-7-5----------
E:----------------------------------------------------------------------------
-------------------------------------------------

VERSE 3

G:---------------------------------5-5-5-5-7-9-7-5-7-5----5-------------------
--------5-9-7-5-7-5-----------------
D:---------------5---7-7-7-7-7----------------------------7-------------------
---7-7-7-----------------7-5-----------
A:---3>---7>------------------------------------------------------7-8-8-8-8-8-
------------------------------8---------
E:----------------------------------------------------------------------------
------------------------------------------------

CHORUS

G:------------------------------------------------------------
D:------------------------------------------------------------
A:---3-3-3-3-3---------------0-0-0-0-0------------------
E:-----------------0-0-0-0-0---------------1-1-1-1-1----

OUTRO

G:-------------------------
D:-------------------------
A:---3~~~---3-2-1-0---
E:--------------------------



~~~ = LET RING        > = PLAY A LOT

Comments