Rancid - Out Of Control Chords & Tabs

 

Out Of Control Chords & Tabs

Rancid Chords & Tabs

Version: 2 Type: Bass Tab 0 ratings
1 star 2 stars 3 stars 4 stars 5 stars
comments

Out Of Control Bass Tab

Artist: Rancid
Song: Out of Control
Tabber: matt_tmse
Email: matt5_fart@hotmail.com 
 
Intro
G--------------------------
D--------------------------
A--3-3-3-----------4-4-4--- X12
E--------1-1-1-4-4---------

Verse
G--------------------------
D--------------------------
A--3-3-3-----------4-4-4--- X4
E--------1-1-1-4-4---------

G----------------------
D----------------------
A-3-3-3-2-2-2----------
E--------------3-3-3-3-
[ Tab from: http://www.guitartabs.cc/tabs/r/rancid/out_of_control_btab_ver_2.html ]
G--------------------------
D--------------------------
A--3-3-3-----------4-4-4--- X4
E--------1-1-1-4-4---------

G--------------------------------------------------
D--------------------------------------------------
A-------------3-3-3-3-3-3-3-3---play 3 times-------
E-4-4-4-4-4-4----------------------------------4-3-

Ending
G----------------------------
D----------------------------
A--3-3-3-----------4-4-4---3- 
E--------1-1-1-4-4-----------
Comments