Rancid - Otherside Chords & Tabs

 

Otherside Chords & Tabs

Rancid Chords & Tabs

Version: 1 Type: Bass Tab 0 ratings
1 star 2 stars 3 stars 4 stars 5 stars
comments

Otherside Bass Tab

Rancid
Otherside
Indestructable-track 19
tabbed by Daniel182

this song is really good and fun to play, please rate!

Intro(00:11)
|---------------------------------------------------------------------|
|---------------------------------------------------------------------|
|-77777777--------77777777----------77777777--------------------------|x1
|---------77777777--------55555555----------77777777-5555555555555555-|

then...
|--------77-----------------|
|------99--99---------------|
|-/777-------77-99-77777777-|x1
|---------------------------|

Verse 1
|-----------------------------------|
|-----------------------------------|
|-77777777--------77777777-----7777-|x2
|---------77777777--------55-77-----|
[ Tab from: http://www.guitartabs.cc/tabs/r/rancid/otherside_btab.html ]
Chorus
|--------------------|  |-----------------|
|--------------------|  |-----------------|
|-4444----------7777-|x3|------------7777-|x2
|-----4444-5555------|  |-55-77-55-77-----|

Verse 2
|-----------------------------------|
|-----------------------------------|
|-77777777--------77777777-----7777-|x2
|---------77777777--------55-77-----|

Chorus
|--------------------|  |-----------------|
|--------------------|  |-----------------|
|-4444----------7777-|x3|------------7777-|x2
|-----4444-5555------|  |-55-77-55-77-----|

Bridge
|---------------------------------------------------------------------|
|---------------------------------------------------------------------|
|-77777777--------77777777----------77777777--------------------------|x2
|---------77777777--------55555555----------77777777-5555555555555555-|

then...
|--------77-----------------|  |-------|
|------99--99---------------|  |-------|
|-/777-------77-99-77777777-|x1|-/7~~~-|x1
|---------------------------|  |-------|

thats it! please rate this tab! thanks!
Comments