Rancid - Olympia Wa Chords & Tabs

 

Olympia Wa Chords & Tabs

Rancid Chords & Tabs

Version: 1 Type: Bass Tab 0 ratings
1 star 2 stars 3 stars 4 stars 5 stars
comments

Olympia Wa Bass Tab

Olympia,WA:
Intro/Outro:
G|-------------------------| |---------|
D|-------------------------|*|---------|
A|-3-3-3/5-5-5-5/8-8-8-8/5-|*|-3-2-0-5-|
E|-------------------------| |---------|

Verse:
G|-----------------------------------------------|
D|-----------------------------------------------|
A|-------------------2-3-3-3-3-3-3-3-3-3-3-3-3h5-|
E|-3-3-3-3-3-3-3-3-5-----------------------------|

G|---------------------------------------------| |---------------|
D|---------------------------------------------|*|---------------|
A|-----------------3h5-5-5-5-5-5-5-5-5-3-2-3-5-|*|-5-5-5-5-3-2-0-|
E|-3-3-3-3-3-3-3-5-----------------------------| |---------------|

Chorus:
G|---------------------------------------------------------------|
D|---------------------2-2-3-3-4-4-5-5-3-3-2-2-0-0---------------|
A|-3-3-2-2-0-0-2-2-5-5-----------------------------3-3-2-2-0-2-0-|
E|---------------------------------------------------------------|
[ Tab from: http://www.guitartabs.cc/tabs/r/rancid/olympia_wa_btab.html ]
G|---------------------------------------------------------------|
D|---------------------------------------------------------------|
A|-3-3-2-2-0-0-2-2-5-5-3-3-2-2-0-0-----2-2-3-3-5-5-3-3-2-2-0-2-0-|
E|---------------------------------3-3---------------------------|

G|--------------------------------------------------------------|
D|--------------------2-2-3-3-4-4-------------------------------|
A|3-3-2-2-0-0-2-2-5-5-------------5-5-3-3-2-2-0-0----2-2-3-3-5-5|
E|-----------------------------------------------3-3------------|

G|-------------------------------------------------|
D|-------------------------------------------------|
A|-3-3-3-3-3-3-3-----------------5-5-5-5-5-5-5-5-5-|
E|---------------3-3-3-3-3-3-3-3-------------------|

Bridge:
G|---------------------------------------------------------------|
D|---------------------------------------------------------------|
A|-----3-3---3-3---------1-1-1-1---3-3---3-3-------------5-5-5-5-|
E|-3-3-----3-----1-1-1-1---------3-----3-----3-3-1-1-1-1---------|

-Adam


Comments