Rancid - Old Friend Chords & Tabs

 

Old Friend Chords & Tabs

Rancid Chords & Tabs

Version: 4 Type: Bass Tab 0 ratings
1 star 2 stars 3 stars 4 stars 5 stars
comments

Old Friend Bass Tab

-Rancid
-Old Friend

   -intro/bridge-
G: --4---2---------------------------------------------|
D: -----------4---2---0---0---2---4---2---0------------|
A: ----------------------------------------------------|
E: ----------------------------------------------------|

G: --4--4---2------------------------------------------|
D: ---------------4---2---0---2--2--2--2---4-----------|
A: ----------------------------------------------------|
E: ----------------------------------------------------|

G: ------4---2--------------------------------------------|
D: ---------------4---2---0---0---2---4---2---0-----------|
A: --2----------------------------------------------------|
E: -------------------------------------------------------|

G: --2---0------------------------------------|
D: -----------4---0---2---0-------------------|
A: ------------------------------4---3--------|
E: -------------------------------------------|
[ Tab from: http://www.guitartabs.cc/tabs/r/rancid/old_friend_btab_ver_4.html ]
    -chorus-
G: ------------------------------------------------------------------------------|
D: ------------------------------------------------------------------------------|
A: --0---3---2---0-----------------4-------0---2---4---5---4---2---0-------------|
E: ---------------------0---2---4-------2----------------------------------------|

    -verse-
G: ----------------------------------------------------------------|
D: -----------------2--2--2--2--4--4--4--4--0--0--0--0-------------|
A: --0--0--0--0----------------------------------------------------|
E: ----------------------------------------------------------------|

    -verse ll-
G: ------------------------------------------------------------------------|
D: ------------------------------------------------------------------------|
A: --0--0--0--0--------------------------------5--5--5--5------------------|
E: -----------------0--0--0--0--2--2--2--2---------------------------------|

    -end-
G: ----------------------------------------------------------------|
D: ------2---4---0---2---------------------------------------------|
A: --0-------------------------------------------------------------|
E: -------------------------5--------------------------------------|


INTRO X2
CHORUS X2
VERSE X4
VERSE II X4
CHORUS X2
VERSE X4
CHORUS X2
INTRO X2
PAUSE
CHORUS X2
VERSE X4
CHORUS X2
VERSE X4
END
Comments