Rancid - Old Friend Chords & Tabs

 

Old Friend Chords & Tabs

Rancid Chords & Tabs

Version: 1 Type: Bass Tab 0 ratings
1 star 2 stars 3 stars 4 stars 5 stars
comments

Old Friend Bass Tab

From: Tfazappa@aol.com
Subject: BASS TAB: Old Friend by Rancid

Play this song fast, and impress people.  It has a great sound to it, and is
one of the
few basslines I've seen that stands alone without accompaniment.

....  oh... the "h"s mean "hammer on".   Play with a pick.


INTRO / BRIDGE

G-------4----2------------------------------------------------
D------------------4----2----0----0----2----4----2----0--
A--2-----------------------------------------------------------

G--------4----2------------------------------------------------
D------------------4----2-----0----2--2--2--2--2--h--4---
A--2------------------------------------------------------------
[ Tab from: http://www.guitartabs.cc/tabs/r/rancid/old_friend_btab.html ]
G--------4----2------------------------------------------------
D-------------------4----2----0----0----2----4----2----0--
A--2------------------------------------------------------------

G--2----0------------------------------------
D-------------4----0----2----0-------------
A------------------------------------4----2--

CHORUS

A--------4----2----0--------------------4---------------2----4----5----4----2-
-------
E--5---------------------0----2----4---------2----5---------------------------
------5--

VERSE

D-------------------2----2----2----3----3----0----0----0--h--2--
A--0----0----0-------------------------------------------------------

VERSE II
D-------------------------------------------0----0----0--
A--0----0----0------------------------------------------
E--------------------0----0----2----2-------------------


                    --------transcribed by Aaron Kinney
                            Tfazappa@aol.com

Comments