Rancid - Nihilism Chords & Tabs

 

Nihilism Chords & Tabs

Rancid Chords & Tabs

Version: 1 Type: Tab 0 ratings
1 star 2 stars 3 stars 4 stars 5 stars
comments

Nihilism Tab

#----------------------------------PLEASE NOTE---------------------------------#
#This file is the author's own work and represents their interpretation of the #
#song. You may only use this file for private study, scholarship, or research. #
#------------------------------------------------------------------------------#

Song: Nihilism
Artists: Rancid
Album: Let's go!

Intro/Outro
e|-----------------------| x4
B|-----------------------|
G|---9-9-9-9--5-5--7-7---|
D|---9-9-9-9--5-5--7-7---|
A|---7-7-7-7--3-3--5-5---|
E|-----------------------|

Verse
e|--3-3-3-3-----------| x4
B|--0-0-0-0--1-1-1-1--|
G|--0-0-0-0--2-1-1-1--|
D|--0-0-0-0--0-0-0-0--|
A|--2-2-2-2--3-3-3-3--|
E|--3-3-3-3-----------|

Verse Part1,2
e|--------------------------------------| x4
B|--------------------------------------|
G|-----------5-5-5-5-----------5-5-5-5--|
D|--3-3-3-3--5-5-5-5--5-5-5-5--5-5-5-5--|
A|--3-3-3-3--3-3-3-3--5-5-5-5--3-3-3-3--|
E|--1-1-1-1-----------3-3-3-3-----------|
[ Tab from: http://www.guitartabs.cc/tabs/r/rancid/nihilism_tab.html ]
Chorus
e|--------------------| x4  2nd Guitar plays  e|-----------------| x4
B|--------------------|		       	      B|-----------------|
G|--9-9-9-9--7-7-7-7--|			      G|-------------12--|
D|--9-9-9-9--7-7-7-7--|			      D|--12--12h15------|
A|--7-7-7-7--5-5-5-5--|			      A|-----------------|
E|--------------------|			      E|-----------------|

Interlude
e|--------------------------------------| x2  2nd Guitar plays  e|--3-3-3-3--3-3-3-3--| x2
B|--------------------------------------|		        B|--3-3-3-3--1-1-1-1--|
G|-----------5-5-5-5-----------5-5-5-5--|		        G|--------------------|
D|--5-5-5-5--5-5-5-5--5-5-5-5--5-5-5-5--| 		        D|--------------------|
A|--5-5-5-5--3-3-3-3--5-5-5-5--3-3-3-3--|		        A|--------------------|
E|--3-3-3-3-----------3-3-3-3-----------|		        E|--------------------|

Break
e|----------------------------| x2
B|----------------------------|
G|----------5-5----------5-5--|
D|--3--3-3--5-5--5--5-5--5-5--|
A|--3--3-3--3-3--5--5-5--3-3--|
E|--1--1-1-------3--3-3-------|


Intro
Verse
Verse Part1,2
Chorus
Verse
Verse Part1,2
Chorus
Interlude
Break
Verse Part1,2
Outro


For questions: mc_call@email.it
Comments