Rancid - Midnight Chords & Tabs

 

Midnight Chords & Tabs

Rancid Chords & Tabs

Version: 1 Type: Bass Tab 0 ratings
1 star 2 stars 3 stars 4 stars 5 stars
comments

Midnight Bass Tab

Song: Midnight
Band: Rancid
Album: Let's Go
Tabbed by: T.J. (Krazy4krn@aol.com)

This song is pretty cool.  The bass line is kind of fun to play and easy too. Well, 
here is the tab:

Intro and Ending
G: ----------------------
D: ----------------------
A: -4-4-4-4-4-4-4--------
E: ----------------------

Intro cont.
G: --------------------------------------
D: --------------------------------------
A: -3-3-3-3-3-3-3-----3-3-3-3-3-3-3-4-4--
E: ---------------1-1--------------------
[ Tab from: http://www.guitartabs.cc/tabs/r/rancid/midnight_btab.html ]
Riff
G: -------------3-3-5-5-3-5-3-5--5-3-------
D: ---------3-5---------------------5-3----
A: -----3-5----------------------------5-3-
E: -3-5------------------------------------

Verse: *=play many times
G: ---------------------
D: --------*------------
A: --*--*-3--*----------
E: -3--1----3-----------

Chorus:  (When the pressure...)
G: --------------------------------------------
D: -3-4-5-5-5-5-4-3-3-3-3-5--------------------
A: ------------------------3-3-3-3-5-----------
E: ----------------------------------3-3-3-3---

Bridge: 2x
G: -----------------------------------------------------------
D: --------------2-2-2-2-2-2----------------------------------
A: ----------------------------------3-2-3-5-3-2--------------
E: --3-3-3-3-3-3------------1-1-1-1-1-----------5-------------


Comments