Rancid - Media Controller Chords & Tabs

 

Media Controller Chords & Tabs

Rancid Chords & Tabs

Version: 2 Type: Bass Tab 0 ratings
1 star 2 stars 3 stars 4 stars 5 stars
comments

Media Controller Bass Tab

Rancid
"Media Controller"
Rancid Single (1992)
Alec(misfit809@Hotmail.com)

Intro:
         4 times
G:-----------------------------|
D:-----------------------------|
A:-5-5-5-------------0-0-0-3-4-|
E:-------5-4-3-0-0-1-----------|

Verse:
[ Tab from: http://www.guitartabs.cc/tabs/r/rancid/media_controller_btab_ver_2.html ]
G:------------------------------|
D:------------------------------|
A:-----------5-5-5-5------------|
E:-2-2-2-2-2---------5-5-5-4-2-2|

Chorus:

G:----------------------|-----------------------|
D:----------------------|-----------------------|
A:-5-5-5---------3-5-5-5|-----------------------|
E:-------5-3-3-3--------|-5-5-5-4-5-5-4-5-5-5-4-|

Outro:

G:-------------|
D:-----3-------|
A:-5-5---5-3-5-|
E:-------------|
Comments