Rancid - Maxwell Murder Chords & Tabs

 

Maxwell Murder Chords & Tabs

Rancid Chords & Tabs

Version: 1 Type: Tab 0 ratings
1 star 2 stars 3 stars 4 stars 5 stars
comments

Maxwell Murder Tab

Rancid - Maxwell Murder

Another easy song but find a good bassist for the solo
(i'm not gonna waste my time putting the bass solo, too hard)
Standard Tuning: EBGDAE

Verses:
E---------------
B---------------
G-7-----5-------
D-7-----5--5----
A-5-----3--5----
E----------3---- (2x)

E--------------------------
B--------------------------
G-77777777--5555-----------
D-77777777--5555--5555-----
A-55555555--3333--5555-----
E-----------------3333----- (2x)
[ Tab from: http://www.guitartabs.cc/tabs/r/rancid/maxwell_murder_tab.html ]
Chorus:
E----------------------------------------
B----------------------------------------
G-10101010--99999999--10101010--9999-777-
D-10101010--77777777--10101010--7777-777-
A-88888888--77777777--88888888--7777-555-
E----------------------------------------

E-------------------------------------------
B-------------------------------------------
G-10101010--99999999--7777-5555------5555-7-
D-10101010--77777777--7777-5555-3333-5555-7-
A-88888888--77777777--5555-3333-3333-3333-5-
E-------------------------------1111--------
Back to Verses

Then Bass solo, then chorus one last time. Simple!
Comments