Rancid - Maxwell Murder Chords & Tabs

 

Maxwell Murder Chords & Tabs

Rancid Chords & Tabs

Version: 9 Type: Bass Tab 0 ratings
1 star 2 stars 3 stars 4 stars 5 stars
comments

Maxwell Murder Bass Tab

Maxwell Murder
Rancid

Verse  |Verse 2 starts
G------|----------------------------------|
D------|----------------------------------|
A-0-3-4|-5----3------0-3-4-5--------------|
E------|---------3------------------------|


G-------------7-----------7--------------|
D----------------------------------------|
A-3---0-3-4-5---5-5-5-5-5---5-5-5-5------|
E---3------------------------------------|


G-------------------7---------7-----------|
D---2-3-4-5-3-2---------------------------|
A-3-------------3-5---5-5-5-5---5-5-5-5---|
E-----------------------------------------|


G----------------------------------------|
D----------------------------------------|
A-3-2-0-2---2-3-5------------------------|
E---------3------------------------------|


Chorus
G-----------------2-------------2--------|
D-3-2-3-2-3-2-3-2---5-4-2---4-5----------|
A-------------------------5--------------|
E----------------------------------------|


G-------------2--------------------------------|
D-3-2-3-2-3-2---5-4-2--------------------------|
A---------------------5-3-2--------------------|
E----------------------------------------------|
[ Tab from: http://www.guitartabs.cc/tabs/r/rancid/maxwell_murder_btab_ver_9.html ]
G-----------------2----------------------7---7--------------------------|
D-3-2-3-2-3-2-3-5---5-4-2-----------------------------------------------|
A-------------------------5--5-5-5-5-0-5---5---0-0-0-----------0-0-0-3--|
E----------------------------------------------------3-1-1-1-1----------|


Solo
G-5-5-----5-5-5-----5-5-5-----5-5-5-----5-5-----------------------------------|
D-----6h7-------6h7-------6h7-------6h7-----6-5-5-3-3-5h7-7-5-5-3-3-5-3-------|
A-----------------------------------------------------------------------5-5---|
E-----------------------------------------------------------------------------|


G---------------5-5h6h7-7-5---------------------------------5-------7---7-5---10-----|
D-----3-3-5-6-7-------------7-7-5-4-4-5-3-3-------------------0-0-0---0-----0--------|
A-5-5---------------------------------------5-0-3-5-0-3-3-5--------------------------|
E------------------------------------------------------------------------------------|

G-----12---10---15-12-12-11-12-11-12-11-7-7-5-6-7-7-5-7---19-19---17-17------|
D-0-0----0----0-----------------------------------------0-------0-------0----|
A----------------------------------------------------------------------------|
E----------------------------------------------------------------------------|

G-16-----15-----14-----12-----10---9---9---8---7-------------------------------|
D-0--0-0----0-0----0-0----0-0----0---0---0---0---0---0-------------------------|
A--------------------------------------------------3---5-----------------------|
E------------------------------------------------------------------------------|
Comments