Rancid - Maxwell Murder Chords & Tabs

 

Maxwell Murder Chords & Tabs

Rancid Chords & Tabs

Version: 4 Type: Bass Tab 0 ratings
1 star 2 stars 3 stars 4 stars 5 stars
comments

Maxwell Murder Bass Tab

!!!Tabbed by D-Bernauer bass player in ¤Destruction of One¤

The song
g-------------------------------------------
d-------------------------------------------
a-------5-4--------5-4--------3-2--------3-2
e-666666----666666-----444444-----444444----

The Solo
g--7--7--7--7-8-9-12
d-5--5--5--5--------
a-------------------
e-------------------

[ Tab from: http://www.guitartabs.cc/tabs/r/rancid/maxwell_murder_btab_ver_4.html ]
g12--12--12---------------------------
d--14--14--14-14-----14---------------
a------------------13---13------------
e--------------------------12-13-12-13


g-------12-15-12-------
d--12-15--------15-12--
a13------------------13   X2
e----------------------


well thats the tab got any thing to say about it email me at
Bad_religion_kid14@hotmail.com l8r all
Comments