Rancid - Loki Chords & Tabs

 

Loki Chords & Tabs

Rancid Chords & Tabs

Version: 1 Type: Tab 0 ratings
1 star 2 stars 3 stars 4 stars 5 stars
comments

Loki Tab

#----------------------------------PLEASE NOTE---------------------------------#
#This file is the author's own work and represents their interpretation of the #
#song. You may only use this file for private study, scholarship, or research. #
#------------------------------------------------------------------------------#

Song: Loki
Artists: Rancid
Album: Untitled 2000

Intro
e|------------------------------|
B|------------------------------|
G|--6-------------6----------9--|
D|--6------4------6------7---9--|
A|--4------4------4------7---7--|
E|---------2-------------5------|
[ Tab from: http://www.guitartabs.cc/tabs/r/rancid/loki_tab.html ]
Verse
e|------------------------------------------------------------------------------|
B|------------------------------------------------------------------------------|
G|--7-7-7-7-7-7-7-7--13-13-13-13-13-13-13-13--7-7-7-7-7-7-7-7----4-5-6-5-4------|
D|--7-7-7-7-7-7-7-7--13-13-13-13-13-13-13-13--7-7-7-7-7-7-7-7--6-----------6-5--|
A|--5-5-5-5-5-5-5-5--11-11-11-11-11-11-11-11--5-5-5-5-5-5-5-5-------------------|
E|------------------------------------------------------------------------------|

e|---------------------------------------------------------------------------------|
B|---------------------------------------------------------------------------------|
G|--7-7-7-7-7-7-7-7--13-13-13-13-13-13-13-13--7-7-7-7-7-7-7-7------4--5---6--5--4--|
D|--7-7-7-7-7-7-7-7--13-13-13-13-13-13-13-13--7-7-7-7-7-7-7-7---6--4--5---6--5--4--|
A|--5-5-5-5-5-5-5-5--11-11-11-11-11-11-11-11--5-5-5-5-5-5-5-5---6--2--3---4--3--2--|
E|--------------------------------------------------------------4------------------|

Chorus
e|-----------------------------------|
B|-----------------------------------|
G|--6-6-6-6-----------6-6-6-6-----9--|
D|--6-6-6-6--4-4-4-4--6-6-6-6--7--9--|
A|--4-4-4-4--4-4-4-4--4-4-4-4--7--7--|
E|-----------2-2-2-2-----------5-----|

End
e|-------|
B|-------|
G|---6---|
D|---6---|
A|---4---|
E|-------|

Intro x2
Verse
Chorus x2
Verse
Chorus x4
End

For questions: mc_call@email.it
Comments