Rancid - Loki Chords & Tabs

 

Loki Chords & Tabs

Rancid Chords & Tabs

Version: 2 Type: Bass Tab 0 ratings
1 star 2 stars 3 stars 4 stars 5 stars
comments

Loki Bass Tab

Rancid
"Loki"
RAncid (2000)
BY: joemamabudz@aol.com

Intro & Chorus:
  do over and over
G:----------|
D:---------2|
A:-4---4-0--|
E:---2------|
[ Tab from: http://www.guitartabs.cc/tabs/r/rancid/loki_btab_ver_2.html ]
Verses:
   do twice
G:------------------------------------------4-5-6-5-4-3-3-1|
D:---------------6-6-6-6-6-6-6------------6----------------|
A:-5-5-5-5-5-5-5---------------5-5-5-5-5-5-----------------|
E:---------------------------------------------------------|



Comments