Rancid - Loki Chords & Tabs

 

Loki Chords & Tabs

Rancid Chords & Tabs

Version: 1 Type: Bass Tab 0 ratings
1 star 2 stars 3 stars 4 stars 5 stars
comments

Loki Bass Tab

Song:      Loki
Album:     Rancid 2000
Tabbed by: BassD!		>=play a couple of time

Intro
G|---------------------------------------------|
D|---------------------------------------------|
A|-4-----4--0--7----4-----4--0--7--------------|
E|----2----------------2-----------------------|

Verse
G|------------------------------------------------------------|
D|----6>--------------------6>--------------------------------|
A|-5>----5>----23432-----5>----5>----2-3-4-3-2----------------|
E|-----------4------43-------------4--------------------------|
[ Tab from: http://www.guitartabs.cc/tabs/r/rancid/loki_btab.html ]
Chorus
G|----------------------------------------|
D|----------------------------------------|
A|-4>----4>-0-7---4>----4>-0-7------------|
E|----2>-------------2>-------------------|

Verse
G|-----------------------------------------------------------|
D|----6>--------------------6>-------------------------------|
A|-5>----5>----23432-----5>----5>----2-3-4-3-2---------------|
E|-----------4------43-------------4-------------------------|

End with Chorus    "Loki play tricks again!"
G|------------------------------------------------------------------------|
D|------------------------------------------------------------------------|
A|-4>----4>-0-7---4>----4>-0-7---4>----4>-0-7---4>----4>-0-7-4------------|
E|----2>-------------2>-------------2>-------------2>---------------------|

Email if you have any questions,comments,correction.
rancid_ska@hotmail.com

Comments