Rancid - Listed Mia Chords & Tabs

 

Listed Mia Chords & Tabs

Rancid Chords & Tabs

Version: 3 Type: Tab 0 ratings
1 star 2 stars 3 stars 4 stars 5 stars
comments

Listed Mia Tab

   
Tabbed By: CorporalHicks

SONG: Listed M.I.A.
ALBUM: ...And Out Come The Wolves
BAND: Rancid

GUITAR 1: INTRO (That's bend '9' to sound like '11')
e|---------------------------------------------------------------|
B|---------------------------------------------------------------|
G|-(9b)11(Hold)-11-11-11-11-11-(9b)11(Hold)-11-11-11-11-11-11-11-|
D|---------------------------------------------------------------|
A|---------------------------------------------------------------|
E|---------------------------------------------------------------|
[ Tab from: http://www.guitartabs.cc/tabs/r/rancid/listed_mia_tab_ver_3.html ]
e|---------------------------------------------------------------|
B|---------------------------------------------------------------|
G|-(9b)11(Hold)-11-11-11-11r-9-7-----7-9-(9b)11(Hold)-11-11-11-11|
D|-------------------------------9-9-----------------------------|
A|---------------------------------------------------------------|
E|---------------------------------------------------------------|

e|---------------------------------------------------------------|
B|---------------------------------------------------------------|
G|-11-(9b)11(Hold)-11-11-11-11-11-11-11-(9b)11(Hold)-11-11-11-11r|
D|---------------------------------------------------------------|
A|---------------------------------------------------------------|
E|---------------------------------------------------------------|

e|-------|
B|-------|
G|-9-7---|
D|-----9-|
A|-------|
E|-------|

(That's bend '9' to sound like '11')

GUITAR 2: INTRO 
e|---------|
B|---------|
G|----8--9-|
D|-9--8--9-|
A|-9--6--7-|
E|-7-------|

(These are only the chords played by the second guitar, how many
times to play will come later. Also, I may be missing one.)

More to come.
Comments