Rancid - Lets Go Chords & Tabs

 

Lets Go Chords & Tabs

Rancid Chords & Tabs

Version: 2 Type: Tab 0 ratings
1 star 2 stars 3 stars 4 stars 5 stars
comments

Lets Go Tab

   
the song are not in order sorry!
============
7 YEARS DOWN


    E5   F    G    C
e---X----X----X----X----
B---X----X----X----X----
G--------X----X----5----
D---2----3----5----5----
A---2----3----5----3----
E--------1----3----X----

Intro riff:

e----------------------------------
B----------------------------------
G-5-(slide to)-8-7-5-5-3-2-3-2-2---
D--------------------------------3-
A----------------------------------
E----------------------------------

(repeat a bunch of times)

E5                    F         G
There's a place where I like to go when
  E5            F      G
I got no food I got no shelter
       E5                             F           G
It's a house where I can get away for maybe three days
   E5                    F            G
To get off the drink and stay off the haze

C                         G           F
Who's the opposition? I'm seven years down
          C                           F         G
The human spirit prevails oh yeah I'm down down down

E5                      F          G
Woke up in the bushes 6:30 Tuesday morning
        E5                      F             G
With an unopened Heineken and a head that was burning
    E5                            F    G
For seven years I walked down the same path
E5               F          G
Dreams they were all I ever had

(bass solo)
at end of bass solo: F G

C                         G           F
Who's the opposition? I'm seven years down
          C                           F         G
The human spirit prevails oh yeah I'm down down down
C                         G           F
Who's the opposition? I'm seven years down
          C                           F         G
The human spirit prevails oh yeah I'm down down down

(Intro riff)

C (bend)

Blah!

==================
AS ONE (Version A)

    A    A2    D    E    B2
e---X----X-----X----X----X-----
B---X----X-----X----X----X-----
G---X----14----7----9----16----
D---7----14----7----9----16----
A---7----12----5----7----14----
E---5----X-----X----X----X-----


A2 D E B2 (repeat)

A                            
War between races war between lies
D                       E
War between something I feel inside
         A                                       
You were wrong all along I was right you lied
D                 E
U to the N to the ITY
A
Straight down too late can't kick the feeling
D                           E             
Looking from the bottom and can't see the ceiling
A
Shots rung out in the Oakland winter
D                     E
Can't stand alone and can't stand together

E A D
      As one! x4

A
No matter what you do they try to divide
D           E
Fear you up what's inside
           A            
Your going way down down down down the scale
D                      E        
Hook the anchor to the gates of hell
A              
Once you realized that it was so simple
D                       E
What you been given you can't take with you
A           
I asked someone if he had the same vision
D               E
He said yeah he had the same vision

E A D
      As one! x4

A2 D E B2        
         As one  (repeat)

A                            
War between races war between lies
D                       E
War between something I feel inside
         A                                       
You were wrong all along I was right you lied
D                 E
U to the N to the ITY
A
Straight down too late can't kick the feeling
D                           E             
Looking from the bottom and can't see the ceiling
A
Shots rung out in the Oakland winter
D                     E
Can't stand alone and can't stand together

E A D
      As one! x4 (end on A)

____________________________________________________________

AS ONE (Version B)



 G    G*    A#   C    D
e-X----XX----X----X----X----
B-X----XX----X----X----X----
G------12----3----5----7----
D-5----12----3----5----5----
A-5----10----1----3----5----
E-3----XX----X----X----X----

G*  A# (slide to) C  D
G*  A# (slide to) C  D

G                 C           D
War between races war between lies
G                       C      D
War between something I feel inside
G                              C         D
You were wrong all along I was right you lied
G                 C D
U to the N to the ITY
G                            C        D
Straight down too late can't kick the feeling
G                           C             D
Looking from the bottom and can't see the ceiling
G                     C       D
Shots rung out in the Oakland winter
G                     C           D
Can't stand alone and can't stand together

G D
   As one!

G                          C      D
No matter what you do they try to divide
G           C      D
Fear you up what's inside
G                             C        D
Your going way down down down down the scale
G                      C        D
Hook the anchor to the gates of hell
G                           C      D
What's you realized that it was so simple
G                       C          D
What you been given you can't take with you
G                     C            D
I asked someone if he had the same vision
G               C            D
He said yeah he had the same vision

G D
   As one!

G*  A# (slide up) C  D
                      As one
G D
   As one!
==================
BLACK & BLUE


  C  D  G  F# A
e---------------
B---------------
G-5--7----------
D-5--7--5--4--7-
A-3--5--5--4--7-
E-------3--2--5-

Intro Reef:

e------------------5--5-5--5-5--3--3-3-3-3-3-3-3-5--5-5--5-5--
B-3--3-3-3-3-3-3-3-5--5-5--5-5--3--3-3-3-3-3-3-3-3--3-3--3-3--
G-2--2-2-2-2-2-2-2-2--2-2--2-2--0--0-0-0-0-0-0-0-2--2-2--2-2--
D-0--0-0-0-0-0-0-0--------------------------------------------    4X
A-------------------------------------------------------------
E-------------------------------------------------------------

BRIDGE:

A--A-G-F#-F#--F#-F#--

VERSE:

D                       C
I started watching them all down the line
D                          C
Keep stepping and rejecting all of the time
D
They try to pull me in
C
Can't let that happen again
D                      C
They try to do it again all on me

BRIDGE:

A--A-G-F#-F#--F#-F#--

CHORUS:

D               G           A   G
Sedation throughout the natiooo o-o-o-on
D               G
We're screaming We're screaming
A               G
We're screaming black and blue
D                 G       A   G
Intoxication of a generatiooo o-o-o-on
D               G
We're screaming We're screaming
A               G
We're screaming black and blue


VERSE:

D
The blind leading the blind
C
They told me I was dumb
D
They said the security system
C
Was too big to outrun
D                C
But I broke away I'm never going back
D                            C
For all the souls they broke mine never cracked


BRIDGE:

A--A-G-F#-F#--F#-F#--

CHORUS:

D               G           A   G
Sedation throughout the natiooo o-o-o-on
D               G
We're screaming We're screaming
A               G
We're screaming black and blue
D                 G       A   G
Intoxication of a generatiooo o-o-o-on
D               G
We're screaming We're screaming
A               G
We're screaming black and blue


WOT'YA GONNA' DO PART:

D               C
                                   

  
D     G    C    D
Yeah...         Wat' ya gonna' do!

D               C
                                   
D     G    C    D
Ohhhhhhh...     Wat' ya gonna' do!


BRIDGE:

A--A-G-F#-F#--F#-F#--


FINAL CHORUS:

D               G           A   G
Sedation throughout the natiooo o-o-o-on
D               G
We're screaming We're screaming
A               G
We're screaming black and blue
D                 G       A   G
Intoxication of a generatiooo o-o-o-on
D               G
We're screaming We're screaming
A               G
We're screaming black and blue

*
 D               G           A   G
 Sedation throughout the natiooo o-o-o-on
 D               G
 We're screaming We're screaming
 A               G
 We're screaming black and blue
 D                 G       A   G
 Intoxication of a generatiooo o-o-o-on
 D               G
 We're screaming We're screaming
 A               G
 We're screaming black and blue

  
 THE END.

* NOTE:

I've put an '*', at the beginning of the second half of the FINAL CHORUS,
this means that the rythm guitar is playing like the normal chorus
chords, but the lead guitar, is doing the following OUTRO RIFF in the
second half of the final chorus:

OUTRO RIFF:

e-10-----
B-----10-
G--------
D--------     (REPEAT, 'till the end)
A--------
E--------

STRUCTURE:

INTRO REEF
VERSE
BRIDGE
CHORUS
VERSE
BRIDGE
CHORUS
WOT 'YA GONNA' DO PART
FINAL CHORUS.

=================
BURN


     F   G   C   Eb
e|---X---X---X---X---|
B|---X---X---X---X---|
G|---X---X---5---8---|
D|---3---5---5---8---|
A|---3---5---3---6---|
E|---1---3---X---X---|


*NOTE: notes in () are fingered not hit
       X=mute
       F=full bend
       /=# of times note or chord is hit

INTRO (kinda hard to understand, basically just screw around 
       on the 3rd and 5th frets of the 1st 3 strings)

e|-3-X---------------3-----3--|
B|-3-X--------XXX----3-----3--|
G|-----5F-(5)-XXX-55-5F-55-5F-| (repeat as neccesary)
D|------------XXX-------------|
A|----------------------------|
E|----------------------------|

CHORUS

F           C
Why can't I walk on thru
F                 C         G
And not feel like one is in hell
F           C
Why can't I walk on thru
F                 C         G
And not feel like one is in hell

VERSE

C                Eb            G
We don't need no water let the motherfucker burn
C                Eb            G
We don't need no water let the motherfucker burn
C                Eb            G
We don't need no water let the motherfucker burn
C                Eb            G
We don't need no water let the motherfucker burn

CHORUS AGAIN

VERSE

C                Eb                   G
Thirteen red and white stripes flyin' white for skin and red for dyin'
C                Eb                   G
Thirteen red and white stripes flyin' white for skin and red for dyin'
C                Eb                   G
Thirteen red and white stripes flyin' white for skin and red for dyin'

C/// Eb  G
    Ohhhhh we're dying!

CHORUS AGAIN

INTRO AGAIN

CHORUS AGAIN

BRIDGE

(don't play)
We don't need no water let the motherfucker burn

(don't play)
We don't need no water let the motherfucker burn

(don't play)
We don't need no water let the motherfucker burn

(don't play)                                G///
We don't need no water let the motherfucker burn

CHORUS AGAIN 

END ON "C"

============

DOPE SICK GIRL


      A    D    E
e|----X----X----X----|
B|----X----X----X----|
G|----X----7----9----|
D|----7----7----9----|
A|----7----5----7----|
E|----5----X----X----|


(bass intro)


e|-5------------------------5--------------------5-|
B|-------------------------------------------------|
G|-------------------------------------------------|
D|-------------------------------------------------|
A|-------------------------------------------------|
E|-------------------------------------------------|
   This song's about a girl   who ripped me off  



e|-5-7---8---7----5-----3--------------------------|
B|-5-7---8---7----5-----3--------------------------|
G|-------------------------------------------------|
D|-------------------------------------------------|
A|-------------------------------------------------|
E|-------------------------------------------------|
     She was dope sick!  

RIFF A:


e|-------------------------------------------------|
B|-------------------------------------------------|
G|----------5------------5------------5---8---7--5-|
D|--5---8--------5---8--------5---8----------------|
A|-------------------------------------------------|
E|-------------------------------------------------|

A              D           E           A
Dope sick girl hit and run she took my money
A            D            E         A
Eighty seven dollars gone now she's running

D       A E    A
How was I I to know
     D          A             E                A
That girl could take my heart everywhere she'd go

A                D              E            A
Dope sick girl a rig and a ride she's got no freedom
A                   D           E           A
Little demons gonna hide inside she's gotta feed them

D       A E    A
How was I I to know
     D          A             E                A
That girl could take my heart everywhere she'd go

E      E E E E    E   
Everywheeeeeere...Everywhere she'd go

(RIFF A)

A              D             E                A
Dope sick girl there she was at the Methodone Clinic
A             D
Drank a cup a base coat she swore
E               A
Not to get back in it

D       A E    A
How was I I to know
     D          A             E                A
That girl could take my heart everywhere she'd go

A                D              E           A
Dope sick girl a rig and a ride to New York City
A                    D                    E                 A
Gonna run away gonna watch it burn in the heart of New York City

D       A E    A
How was I I to know
     D          A             E                A
That girl could take my heart everywhere she'd go

E      E E E E    E   
Everywheeeeeere...Everywhere she'd go

(RIFF A)

RIFF B:

note: b=bend                                            hold  bend
      s=slide                                           [--------]

e|-88888888-3s5-5-5-3s5-5-5-88888888-5-3-5-0-8b-88-8b-88-8b888888-8----8----8(slide down)-|
B|-88888888-3s5-5-5-3s5-5-5-88888888-5-3-5-0-8b-88-8b-88-8b888888-8----8----8(slide down)-|
G|----------------------------------------------------------------------------------------|
D|----------------------------------------------------------------------------------------|
A|----------------------------------------------------------------------------------------|
E|----------------------------------------------------------------------------------------|

                                                                  A    A    A
                                                                  Dope sick girl!
================
GAVE IT AWAY


     G   A   D
e|---X---X---X---|
B|---X---X---X---|
G|---X---X---7---|
D|---5---7---7---|
A|---5---7---5---|
E|---3---5---X---|

*NOTE: h=hammer on
       p=pull off
       s=slide to
       /=# of times note or chord is hit i.e. G//=hit "G" 3 times


INTRO (part 1, play slow)

   G        D   A G        D   A G       A  D     G        D
e|-------------------------------------------------------------|
B|-12h15p12----------------------------------------------------|
G|----------h14---11h14p11------------------------11h14p11-----|
D|-------------------------h12---9h12s14-12h14p12----------12--|
A|-------------------------------------------------------------|
E|-------------------------------------------------------------|

INTRO (part 2, play faster)

e|-------------------------------------------------------------|
B|-12h15p12----------------------------------------------------|
G|----------h14---11h14p11------------------------11h14p11-----|
D|-------------------------h12---9h12s14-12h14p12----------12--|
A|-------------------------------------------------------------|
E|-------------------------------------------------------------|

VERSE (play 4 times)

 
D/// G/// A/// D///


CHORUS


G/// D    A  G    D    A  G    D    A   G    D
     Gave it away Gave it away Gave it awa-a-ay


BRIDGE (same as intro part 2, except with words)

(play intro pt 2)

Gave it away gave it away gave it awa-a-y


STRUCTURE

1. Intro part 1
2. Intro part 2
3. Verse
4. Chorus
5. Verse
6. Chorus
7. Intro part 1
8. Bridge
9. Intro part 1 (end on "D")


==============

GHETTO BOX

     A   D   D#  E
e|---X---X---X---X---|
B|---X---X---X---X---|
G|---X---7---8---9---|
D|---7---7---8---9---|
A|---7---5---6---7---|
E|---5---X---X---X---|


*NOTE: /=# of times note or chord is hit i.e G//=it "G" 3 times
       s=slide to
       pm=palm mute
       n.c.=no chord


INTRO:

A D A D#///
         Hey!

A D A D#///
         Hey!

VERSE (Tim):

   A                        D             E
My ghetto box is talkin' (attack from the backstreets)
    A                         D             E
The guitar case is rockin' (attack from the backstreets)
            A                   D             E
Now they're forward stalkin' (attack from the backstreets)
        A                        D             E
But the punks ain't stoppin'! (attack from the backstreets)


CHORUS (Matt):

    D(pm)                  E(pm)
Let go of my hand, I don't understand
A(pm)            D(pm)
Street lights coming through
D               E                A//// E//
Attack from the backstreets with you


VERSE (Tim):

A                   D             E
Cadillac rollin' (attack from the backstreets)
  A                     D             E
Police are patrolin' (attack from the backstreets)
      A                         D             E
We're safe where we're goin' (attack from the backstreets)
      A                D             E
Mississippi Highway (attack from the backstreets)


CHORUS (Matt):

D(pm)                     E(pm)
Took the van apart with a canine unit
A(pm)       D(pm)
Nazi cops, fuck you!
D               E                A//// E//
Attack from the backstreets with you 

A D A D#///
         Hey!

A D A D#///
         Hey!

SOLO:

   A    D  E  (x3)  A   D  E  D    E    A    D         E    A     E//
e|----------------------------2///-4///-0///-2///-2///-4///-5////-0//-|
B|----------------------------3///-5///-0///-3///-3///-5///-5////-0//-|
G|------7/-6/-(x3)-9///-7/-6/-----------------------------------------|
D|-7///-7/-6/------9///-7/-6/-----------------------------------------|
A|-7///---------------------------------------------------------------|
E|--------------------------------------------------------------------|


BRIDGE (Tim):

(n.c.)
My ghetto box is talkin' (attack from the backstreets)
(n.c.)
The guitar case is rockin' (attack from the backstreets)
(n.c.)
Now they're forward stalkin' (attack from the backstreets)
(n.c.)
But the punks ain't stoppin'! (attack from the backstreets)
 

CHORUS (Matt):

    D                      E
Let go of my hand, I don't understand
A                D
Street lights coming through
D               E                A//// E//
Attack from the backstreets with you


OUTRO:

A D A D#///  A (end)
         Hey!

===============
GUNSHOT



Note:"This song was made to be played with
two guitars, in the beginning one guitar (Lars)
begins with the chords, whilst the other(Tim)
does the cool riff".

  C  F  D  G  F#  D#
e-------------------
B-------------------
G-5-----7---------8-
D-5--3--7--5--4---8-
A-3--3--5--5--4---6-
E----1-----3--2-----

INTRO:

Guitar TWO "Lars"(INTRO CHORDS):

C--F-G--C--D#-D--F(quick slide to)G (REPEAT)

(Be sure to follow the rythm with the chords above,
and in the order above
you can guide yourself to the rythm, by following the
rythm of the riff below, listen to the song 'till
you get the rythm punk!!!)

Riff:

e-8--8-8-8-8-8-8---------------8--8-8-8-8-8-8-08--8-08-8-
B-8--8-8-8-8-8-8-10--8-10--8-8-8--8-8-8-8-8-8-11--8-11-8-
G----------------10--8-10--8-8---------------------------
D-------------------------------------------------------- (REPEAT)
A--------------------------------------------------------
E--------------------------------------------------------

Note:
To play the above riff, leave your index finger on the 8th
fret of the first three chords (all the time), and play only
the strings told above. Then work the other frets with your
other fingers, but never lift your index finger.

VERSE:
G                                C                D
Everybody wants to come down but no one wants to pay
G                           C      D
I try  to show 'em but they do anyway
G                                C      D
I was caught up and knocked down to my knees
G                C     D
Same thing for my duty quiz

CHORUS:

C  G
Gunshot!
C  G
Gunshot!
C  G   D
Gunshot through my heart

VERSE:

G                           C              D
Sometimes there are guys who can deal with me
G                                C        D
Everything's imperive but I don't fucking need
G                         C      D
I know where you are but I don't care
G                    C     D
I thought I'd use my "no decision"

CHORUS:

C  G
Gunshot!
C  G
Gunshot!
C  G   D
Gunshot through my heart

BRIDGE:

F#-G-F#-G-F#-F#-G-F#-G (REPEAT 4X)

PART JUST BEFORE SOLO:

  G                C  D
Gunshoooooooooooot!
  G                C  D
Gunshoooooooooooot!
  G                C  D
Gunshoooooooooooot!
  G                C  D
Gunshoooooooooooot!

SOLO:
e--------------------------------------------------------
B--------------------------------------------------------
G--------------------------------------------------------
D--------------------------------2-2-2-2-5-----4-4-4-4-7-
A----2-2-2-2-5-----2-2-2-2-5--3-------------5------------
E-3-------------3----------------------------------------

e--------------------------------------------------------
B--------------------------------------------------------
G--------------------------------------------------------
D--------------------------------2-2-2-2-5-----4-4-4-4-7-
A----2-2-2-2-5-----2-2-2-2-5--3-------------5------------
E-3-------------3----------------------------------------

e-----------------------------------------------------------------------------------------
B-----------------------------------------------------------------------------------------
G----4-4-4-4------4-4-4-4-----------------9-9-9-9------------------11-11-11-11------------
D-5---------5--5---------5--(5-Slide-10)---------10--(10-slide-12)------------(12-slide-5)
A-----------------------------------------------------------------------------------------
E-----------------------------------------------------------------------------------------

(The following part of solo must be palm-muted)

e-----------------------------------------------------
B-----------------------------------------------------
G-----------------------------------------------------
D------------------------------2-2-2-2------4-4-4-4-7-
A----2-2-2-2------2-2-2-2---3---------3--5------------
E-3---------3--3---------3----------------------------

FINAL CHORUS:

C  G
Gunshot!
C  G
Gunshot!
C  G   D
Gunshot through my heart

C  G
Gunshot!
C  G
Gunshot!
C  G   D                 G
Gunshot through my heart

STRUCTURE:

INTRO CHORDS
RIFF
VERSE
CHORUS
VERSE
CHORUS
BRIDGE
RIFF
PART BEFORE SOLO
SOLO
FINAL CHORUS.

============

HARRY BRIDGES


    F    G    A    C    D  Emajor
e---X----X----X----X----X----X----
B---X----X----X----X----X----X----
G---X----X----X----5----7----X----
D---3----5----7----5----7----2----
A---3----5----7----3----5----2----
E---1----3----5----X----X----0----

D                     G
Bloody Thursday was July 5th the pigs
             C             G                   D
Killed three workers Harry Bridges grabbed the mic
D                    G
The city shut down July 6th the workers
        C              G       A
Were outraged it was a general strike

D                          G
The media claimed that the commies
            C        G                    D
Were taking over and some believed it was true
D                    G
Three uncompromising strikes paved the way
     C             G          D
Minnesota, San Francisco, Toledo

C  G      D              C         G              D 
 Over and over again the doors are locked and the windows are broken
C  G      D              C         G              D                  Emajor...
 Over and over again the doors are locked and the windows are broken

D                        G
Eddie worked for General Motors and he swore
          C          G        D
That he'd never lose his job again
D               G                     C         G           D
A Union man who owned his own home in beautiful Flint, Michigan

D                           G
Well Eddie lost his job and Eddie lost his home 
C        G              D
So Eddie lost his self esteem
D               G            C           G             D
Last time I saw Eddie he was living in a trailor park again

C  G      D              C         G              D 
 Over and over again the doors are locked and the windows are broken
C  G      D              C         G              D                  Emajor...
 Over and over again the doors are locked and the windows are broken

*notes in () are fingered, but not plucked*
e-4-(5)-5--4-(5)-5--4-(5)-5--4-(5)-5-5-5-3- (repeat x4)
B------------------------------------------
G------------------------------------------
D------------------------------------------
A------------------------------------------
E------------------------------------------


A              C
I believe that Eddie forgave too much too soon
A                                      F
  I got a letter about it Eddie it was bad news

C  G      D              C         G              D 
 Over and over again the doors are locked and the windows are broken
C  G      D              C         G              D                  Emajor...D
 Over and over again the doors are locked and the windows are broken

==============

I AM THE ONE



  A G D E F
e------------
B------------
G-----7-9-10-
A-7-5-7-9-10-
D-7-5-5-7-08-
E-5-3--------


CHORUS:

A...          G...                            
I am the one! who's got no religion
                                              x4
D...           A...          
I am the one!, I've got a terrible life


BRIDGE:

    Hey, hey, hey!!!
A E D
    Hey, hey, hey!!!
A E D
    Hey, hey, hey!!!
A E D
    Hey, hey, hey!!!
A E D

VERSE:

A                D
Are you gonna be ready to use it
A                   D
If you hesitate they'll pursue it
A                   D
Put the gun to your dome no question
A            D
Now the holy ghost is in question
A                    D
What about the banks when they go 
A                     D
Standing at the top & can't let go 
A                   D
Standing can't take can't take that time
A                     D
When I try sometimes I can't stay high

CHORUS:

A...         G...                            
I am the one! who's got no religion
                                               x2
D...           A...          
I am the one!, I've got a terrible life

VERSE:

A                D
Are you gonna be ready to use it
A                   D
If you hesitate they'll pursue it
A           D
Good & evil fame from above
A             D
Death, peace, eternal love
A                         D
Bleeding at the gates and I can't come in
A                     D
Courage that abates a life of sin
A                         D
Sure that it holds and it holds no other
A                              D 
With the lies of the brave the kid don't matter

CHORUS:

A...          G...                            
I am the one! who's got no religion
                                               x2
D...           A...          
I am the one!, I've got a terrible life

BRIDGE:

    Hey, hey, hey!!!
A E D
    Hey, hey, hey!!!
A E D
    Hey, hey, hey!!!
A E D
    Hey, hey, hey!!!
A E D

SHOUT YEAH PART:

A   D   F   E
Yeah!     I am the One          
A   D   F   E
            yeah! 

CHORUS:

A...          G...                            
I am the one! who's got no religion
                                               x2
D...           A...          
I am the one!, I've got a terrible life

FINAL BRIDGE:

    Hey, hey, hey!!!
A E D
    Hey, hey, hey!!!
A E D
    Hey, hey, hey!!!
A E D
    Hey, hey, hey!!!
A E D                A  A  A...(Short rake down 6th string) A-XXX


STRUCTURE:

CHORUS
BRIDGE
VERSE
CHORUS
VERSE
CHORUS
BRIDGE
SHOUT YEAH PART
CHORUS
FINAL BRIDGE

================

INTERNATIONAL COVER-UP


     F    G    Bb   D    E    
e|---X----X----X----X----X----|
B|---X----X----X----X----X----|
G|---X----X----3----7----9----|
D|---3----5----3----7----9----|
A|---3----5----1----5----7----|
E|---1----3----X----X----X----|

D            G
Back down no back down coming up
D          G
Rise up no rise up showing up
D            G
Lock down no lock down coming up
F    G
International cover-up

D            G
Back down no back down coming up
D          G
Rise up no rise up showing up
D            G
Lock down no lock down coming up
F    G
International cover-up

F
What about the state of the union
Bb
What about the games they are using
F
What about the kids that don't matter
Bb
What about a general strike

F         Bb              F
You don't know what it is like
                         E
What it's like what it's like

D            G
Back down no back down coming up
D          G
Rise up no rise up showing up
D            G
Lock down no lock down coming up
F    G
International cover-up

F
What about the cage getting rattled
Bb
What about the international battle
F
What about the kids who are dreaming
Bb
What about the kid who got stopped

F         Bb              F
You don't know what it is like
                         E
What it's like what it's like

D            G
Back down no back down coming up
D          G
Rise up no rise up showing up
D            G
Lock down no lock down coming up
F    G
International cover-up (bass solo)
F    G
International cover-up (bass solo)
F    G
International cover-up (bass solo)
F    G
International cover-up 

SOLO:
note: h=hammer on
      p=pull of
      B=bend
                                 [hold bend-]
e|-4h5-555555-5-4------------4b/h5b555555555p4-----|
B|----------------6-3--6-3-6-------------------6-3-|
G|-------------------------------------------------|
D|-------------------------------------------------|
A|-------------------------------------------------|
E|-------------------------------------------------|
                                            Ohhh!
e|-4h5--5-4-5-4-5---5-4---5-4---4-1-4-1-4-1-5------|
B|-4h5--5-4-5-4-5-6-5-4-6-5-4-6-4-1-4-1-4-1-5------|
G|----------------6-----6-----6--------------------|
D|-------------------------------------------------|
A|-------------------------------------------------|
E|-------------------------------------------------|

D            G
Back down no back down coming up
D          G
Rise up no rise up showing up
D            G
Lock down no lock down coming up
F    G
International cover-up

F    G   D
Coverup!

============

LET'S GO


  A D E E G F# 
e-------------
B-------------
G---7-9-----4-
D-7-7-9-2-5-4-
A-7-5-7-2-5-2-
E-5-----0-3---


INTRO:

AA  ee                           AAAA  ee
   Jimmy said he could handle this
AA        ee            AAAA  ee
   Ohhhh, he's from Los Angeles  ohh!

INTRO BRIDGE:

A     E      X4

VERSE:

A
Jimmy said he could handle this
D
Born and raised with West Side solutions
E
Dad's a lawyer, Mummy's sleep, 
D
runs down the family can't ya see,

A
One thing seems very clear
D
Daddy's got no connection here,
E
Everything's reject and demanded,
D
Lived your life and thought handled it

Bridge:

E
Let the dying shorten this Rythmmmm!!!

CHORUS:

A         D
Let's Go! Where the shores are green
A         D
Let's Go! Where the Music's loud
A         D                              E          D
Let's Go! Where there ain't no problems, fuck this, fucking transit

VERSE:

A
I ain't forty, I like your stories
D
Keep them coming cause It's kind a boring
E
It ain't coming you have to find it
D
'Cause all of a sudden you got grounded

A
You didn't care, you just stared
D
At the sign that said: "all beware",
E
In and Out and said: 'Oi, Tik, Tok', 
D
I'm glad you got away of me 

Bridge:

E
Let the dying shorten this Rythmmmm!!!

CHORUS:

A         D
Let's Go! Where the shores are green
A         D
Let's Go! Where the Music's loud
A         D                              E          D
Let's Go! Where there ain't no problems, fuck this, fucking transit

YEAH, YEAH, YEAH PART:

A   G   F#  E
            Yeah, yeah, yeah!!!     

A   G   F#  E                     AA ee AAAA ee AA ee AAAA ee A-XXXXX
            Yeh, yeh,yeih, yeih yeaaaaaaaaaaaaaaaaaaaaaaaaaaaaah!!!  


STRUCTURE:

INTRO
VERSE
BRIDGE
CHORUS
VERSE
BRIDGE
CHORUS
YEAH, YEAH, YEAH PART

===========

MIDNIGHT


     G    C    Db   D    E
e|---X----X----X----X----X----|
B|---X----X----X----X----X----|
G|--------5----6----7----9----|
D|---5----5----6----7----9----|
A|---5----3----4----5----7----|
E|---3----X----X----X----X----|

Db Db Db Db Db Db Db Db

Intro riff:

e-------------------------------------------
B-------------------------------------------
G-7-7-10-10-10-7-7-5-5-7-7-10-10-10-7-7-6-6-
D-------------------------------------------
A-------------------------------------------
E-------------------------------------------

(play over a G chord a bunch of times)

(strike each once:)
G D C

G                          C
Midnight I know where I am that's right I know where I'm going
D                     G
Shut down vacant city ghost town tensions rising
G                             C
Kick kick kick the ground and look look look around and
D    G
Oh...affairs of the nation 

(hold G) D             G
When the Pressure came down
C         G
Sustain authority

(strike each once:)
G D C

G                     C
Midnight I know I can that's right I ain't broken
D                     G
Shut down vacant city ghost town tensions rising
G                           C
Kick kick kick the door and look look look around and
D       G
Affairs affairs of the nation

(hold G) D             G
When the Pressure came down
C         G
Sustain authority

(strike each once:)
G D C

G E C  e----------------- x2
       B-----------------
       G-5-7-5---5-7-5---
       D-------5-------5-
       A-----------------
       E-----------------

(Intro riff)

Db Db Db Db Db Db Db Db

==================

MOTORCYCLE RIDE


     F    F#   G    A    A#   B    C    D#
e|---X----X----X----X----X----X----X----X----|
B|---X----X----X----2----X----X----X----X----|
G|---X----X----X----2----3----4----5----8----|
D|---3----4----5----2----3----4----5----8----|
A|---3----4----5----0----1----2----3----6----|
E|---1----2----3----X----X----X----X----X----|


INTRO RIFF:

   C   D#   C B A# A G  F# 
e|-8---11---8-8-11---11----|
B|-8---11---8-8-11---11----|
G|-------------------------|
D|-------------------------|
A|-------------------------|
E|-------------------------|

   C                           F
e|---------------------------------------------------------|
B|---------------------------------------------------------|
G|---------------------------------------------------------|
D|-10-10-8-8-7-7-10-10-8-8-7-7-10-10-8-8-7-7-10-10-8-8-7-7-| x2
A|---------------------------------------------------------|
E|---------------------------------------------------------|
[ Tab from: http://www.guitartabs.cc/tabs/r/rancid/lets_go_tab_ver_2.html ]
   A#                C
E|-6-6-6-6-8-6-6-6-6-6-8-8-8-8-8-8-11-8-8-8-|
B|-6-6-6-6-8-6-6-6-6-6-8-8-8-8-8-8-10-8-8-8-|
G|------------------------------------------|
D|------------------------------------------|
A|------------------------------------------|
E|------------------------------------------|

   A#                  C   D#   C B A# A G  F#
e|-6-6-6-6-8-6-6-6-6-6-8---11---8-8-11---11----|
B|-6-6-6-6-8-6-6-6-6-6-8---11---8-8-11---11----|
G|---------------------------------------------|
D|---------------------------------------------|
A|---------------------------------------------|
E|---------------------------------------------|

F                                 C
If you wanna make a move then you better come in
           Bb                    F
It's just ability to reason that wears so thin
F                        C
Living and dying and the stories that are true
    Bb                       F
The secret to a good life is knowing when you're through...

(same chords for rest of verse)

Bb
Sarah ceased existing long before she died

C          D#            C B A# A  G  F# F
A fifth of bourbon and a motorcycle      ride

   F                                 C
...If you wanna make a move then you better come in
           Bb                    F
It's just ability to reason that wears so thin
F                                 C
If you wanna make a move then you better come in
           Bb                    F
It's just ability to reason that wears so thin

Bb
Sarah ceased existing long before she died

e|-8---------11----------8-8--11-11-|
B|-8---------11----------8-8--11-11-|
G|----------------------------------|
D|----------------------------------|
A|----------------------------------|
E|----------------------------------|

   C          D#            C B A# A  G  F# F
   A fifth of bourbon and a motorcycle      ride

(INTRO RIFF) then hit "F" once (end)

==================


NAME


  E F# A D
e----------
B----------
G------2-7-
D-2-4--2-7-
A-2-4--0-5-
E-0-2------

TIM SHOUTING:

You Don't know my name,
Man you don't down my naaaame...

REEF:

e-2--2-2-2-2-2-2-2--2-2-2-2-2-2-2--2-2-2-2-2-2--2---2---2---2---
B-2--2-2-2-2-2-2-0--0-0-0-0-0-0-2--2-2-2-2-2-2----4---4---4---4- 
G---------------------------------------------------------------
D---------------------------------------------------------------   x4
A---------------------------------------------------------------
E---------------------------------------------------------------

NOTE: Do the reef above 2 times slow, then another two times
a little bit faster.

CHORUS:

E         F#
You Don't know my name,           x2
A                     E
Man you don't down my naaaame

VERSE:

E              F#    A
Paint a number on my head 
E       F#       A
work me till I'm dead
E               F#   A
I can't believe I've wasted 
E                F#   A
all of the years I've tasted

BRIDGE:

{Low volume feedback on D}...

A million days and nights 
All this pain and struggle
All for what I ask  

E
all the hate and trouble

CHORUS:

E         F#
You Don't know my name,
A                     E
Man you don't down my naaaame

VERSE:

E           F#       A
Punch drunk from the punch clock
E           F#          A
Opportunity never gonna knock
E       F#           A
No more of this blue collar
E               F#      A
All the union's getting smaller 

BRIDGE:

{Low volume feedback on D}...
A million days and nights 
All this pain and struggle
All for what I ask  

E
all the hate and trouble

CHORUS:

E         F#
You Don't know my name,
A                     E
Man you don't down my naaaame

"REEF" {But this time always fast, not like the beginning}

FINAL CHORUS:

E         F#
You Don't know my name,
A                     E         
Man you don't down my naaaame
E         F#
You Don't know my name,
A                     E          E-XXX
Man you don't down my naaaame

STRUCTURE:

TIM SHOUTING
REEF
CHORUS
VERSE
BRIDGE
CHORUS
VERSE
BRIDGE
CHORUS
REEF {this time 8 times not 4}
FINAL CHORUS.

=============

NIHILISM


    F    G  Gmajor C  Cadd9  E  Emajor D
e---X----X----3----X----3----X----X----X----
B---X----X----0----X----0----X----X----X----
G---X----X----0----5----0----9----X----7----
D---3----5----0----5----2----9----2----7----
A---3----5----2----3----3----7----2----5----
E---1----3----3----X----0----X----0----X----

(feedback)
rake down 6th string

E   C D 
        Hey! (repeat)

Gmajor        Cadd9
Come into the Union District
Gmajor        Cadd9
Drive down on Sharmon palms
Gmajor        Cadd9
White ghettos paint a picture
Gmajor           Cadd9
Broken homes and broken bones

F                             C
I was so fulla scotch I could not stand up
G                             C
I was hitting the shots and I moved to a cup
F               C
Release me from moral assumption
G               C
Total rejection total destruction

F          C       G    C
Nihilistic feelings are moving
     F          C      G         C
If I try really hard I see right through them
  
note: h=hammer on
GUITAR 1: G----------12-
          D-12-12h15----
GUITAR 2: E              D  
                          Nihilism! (repeat x3)

Gmajor        Cadd9
Come into the Union District
Gmajor        Cadd9
Drive down on Sharmon Palms
Gmajor        Cadd9
White ghettos paint a picture
Gmajor           Cadd9
Broken homes and broken bones

F                 C
Walking a path of self destruction
G               C
Not affected by repercussions
F                     C
Lady at the billboard offered me a drink
G                       C
I said "Not right now I need time to think!"
F          C       G    C
Nihilistic feelings are moving
     F          C      G         C      
If I try really hard I see right through them

note: h=hammer on
Guitar 1: G----------12-
          D-12-12h15----
Guitar 2: E              D  
                          Nihilism! (repeat x3)

e-3--3-3-3-3-3-3--3-3-3-3-3-3-3- (repeat x4)
B-3--3-3-3-3-1-1--1-1-1-1-1-1-1-
G-------------------------------
D-------------------------------  
A-------------------------------
E-------------------------------

(play while singing "nihilismmmmm" in the background):
F FF CC G GG CC
F FF CC G GG CC        

(keep playing above chord progression):
I was so fulla scotch I could not stand up
I was hitting the shots and I moved to a cup
When you come into the Union district
And you drive down Sharmon Palms
White ghetto paints a picture
Broken homes and broken bones

Emajor...(rake down 6th string)
Yeah...broken bones!

E   C D 
        Hey! (repeat and end on E)

==========

RADIO (Version A)


    D    B    G    A
e---X----X----X----X----
B---X----X----X----X----
G---7-------------------
D---7----9----5----7----
A---5----9----5----7----
E---X----7----3----5----


D             B         G                   D
Never fell in love 'til I fell in love with you
D                 B                    G                    D
Never knew what a good time was 'til I had a good time with you
D                            B                           
If you wanna get the feeling you wanna get it right 
         G                D
Then the music's gotta be loud
D                    B              G       D   A....
Cause when the music hits I feel no pain at all

D           B           G                D
Warm summer night I was drinking with my dad
D           B                 G       D
He tried to give me love that I never had
D                B           G         D
But he gave more love to his bottle of wine
D              B                G       D
So I had to go out find love of another kind

e-3-5-5-5-5-5-5-3-5-5-5-5-5--5-4-3---5-4-3-5-4-3---5-4-3-
B-3-5-5-5-5-5-5-3-5-5-5-5-5------------------------------
G--------------------------------------------------------
D--------------------------------------------------------
A--------------------------------------------------------
E--------------------------------------------------------
     Here it is   here I am  turn it up    fuckin' loud!

D           B           G           D
Radio radio radio radio radio radio radio
D              B     G                D
When I got the music I got a place to go
D           B           G           D
Radio radio radio radio radio radio radio
D              B     G                D  A...
When I got the music I got a place to go

D     B     G             D
Radio clash magnificent seven
D       B              G               D
I was a choir boy they showed me no heaven
D   B     G      D
Two tools surely lost
D    B           G        D
No remorse and ignore the cost

e-3-5-5-5-5-5-5-3-5-5-5-5-5--5-4-3---5-4-3-5-4-3---5-4-3-
B-3-5-5-5-5-5-5-3-5-5-5-5-5------------------------------
G--------------------------------------------------------
D--------------------------------------------------------
A--------------------------------------------------------
E--------------------------------------------------------
     Here it is   here I am  turn it up    fuckin' loud!

D           B           G           D
Radio radio radio radio radio radio radio
D              B     G                D
When I got the music I got a place to go
D           B           G           D
Radio radio radio radio radio radio radio
D              B     G                D  A...
When I got the music I got a place to go

e-------------------------
B-------------------------
G-7-9-11-12--11-12-11-9-7-
D-------------------------
A-------------------------
E-------------------------
(repeat x2)

D              B     G                D
When I got the music I got a place to go
D              B     G                D
When I got the music I got a place to go
D                B                  G                  D
I got a place to run got a place to run got a place to go
D              B     G                D
When I got the music I got a place to go
D              B     G                D
When I got the music I got a place to go

D B G D

_____________________________________________________________________________

RADIO (Version B)


D             A         G                   D
Never fell in love 'til I fell in love with you
D                 A                    G                    D
Never knew what a good time was 'til I had a good time with you
D                            A                           
If you wanna get the feeling you wanna get it right 
         G                D
Then the music's gotta be loud
D                    A              G       D   A....
Cause when the music hits I feel no pain at all


D           A           G           D
Radio radio radio radio radio radio radio
D              A     G                D
When I got the music I got a place to go
D           A           G           D
Radio radio radio radio radio radio radio
D              A     G                D  A...
When I got the music I got a place to go

================
SALVATION -Plain chords (Version A)


     A    D    E
e|---X----X----X----|
B|---X----X----X----|
G|---X----7----9----|
D|---7----7----9----|
A|---7----5----7----|
E|---5----X----X----|


A...(slowly rake down 6th string)
Come on baby won't you show me what you got there
D              E       
I want your salvation whoah
A...(slowly rake down 6th string)
Come on baby won't you show me what you got there
D              E       
I want your salvation whoah

A                             D               E               D
There's a neighborhood called Blackhawk where all the rich people hide
A                                     D
I was down on my luck working for the Salvation Army 
    E                    D
The shelter is where I reside
A                      D             E                D
Everyday we drive into Blackhawk and pick up the offerings
A                 D            E          D
Microwave ovens refridgerators for the suffering

A...(slowly rake down 6th string)
Come on baby won't you show me what you got there
D              E       
I want your salvation whoah
A...(slowly rake down 6th string)
Come on baby won't you show me what you got there
D              E       
I want your salvation whoah

A         D                  E         D
I can't believe these people live like kings
A        D         E       D
Hidden estates and diamond rings
      A    D  E        D        
I'm a ra-a-at out on a mission
A           D          E       D 
I'm in your front yard under suspicion

A...(slowly rake down 6th string)
Come on baby won't you show me what you got there
D              E       
I want your salvation whoah
A...(slowly rake down 6th string)
Come on baby won't you show me what you got there
D              E       
I want your salvation whoah

SOLO:
Note: h=hammer on
      f=half bend
      notes in () are fingered but not hit
e|--------------------------------------------------------------------------|
B|--------------------------------------------------------------------------|
G|-6h7-----5-6h7-----5-7-10-10--10h9-7---7-7-9f-(9)-7---7---7---7-9f-(9)-7--|
D|-------7---------7-------------------9--------------9---9---9-------------|
A|--------------------------------------------------------------------------|
E|--------------------------------------------------------------------------|

A...(slowly rake down 6th string)
Come on baby won't you show me what you got there
D              E       
I want your salvation whoah
A...(slowly rake down 6th string)
Come on baby won't you show me what you got there
D              E       
I want your salvation whoah

A         D                  E         D
I can't believe these people live like kings
A        D         E       D
Hidden estates and diamond rings
      A    D  E        D        
I'm a ra-a-at out on a mission
A           D          E       D 
I'm in your front yard under suspicion

A...(slowly rake down 6th string)
Come on baby won't you show me what you got there
D              E       
I want your salvation whoah
A...(slowly rake down 6th string)
Come on baby won't you show me what you got there
D              E       
I want your salvation whoah

SOLO

A...(slowly rake down 6th string)
Come on baby won't you show me what you got there
D              E       
I want your salvation whoah
A...(slowly rake down 6th string)
Come on baby won't you show me what you got there
D              E       
I want your salvation whoah

__________________________________________________________________________

SALVATION -Tablature


CHORUS:

come on baby won't you show me what got here
e:--------------------------------------------------------
b:--------------------------------------------------------
g:--------------------------------------------------------
d:--------------------------------------------------------      x 16
a:---7---------------------------------------------------
e:---5---------------------------------------------------

i want your salvation
e:-------------------------------------------------------
b:-------------------------------------------------------
g:-------------------------------------------------------
d:---7--------------------------------------------------       x 8
a:---5--------------------------------------------------
e:-------------------------------------------------------

whoa-oh
e:-------------------------------------------------------
b:-------------------------------------------------------
g:-------------------------------------------------------                   
d:----9-------------------------------------------------
a:----7-------------------------------------------------
e:-------------------------------------------------------

VERSE:

e:---------------------------------------------------------------------------------
b:---------------------------------------------------------------------------------
g:---------------------------------------------------------------------------------
d:---------------------------7-----6----7----9-------------9---7---6---7-----------
a:-----7------7------------5-----4----5----7-------------7---5---4---5-------------
e:-----5------5--------------------------------------------------------------------

__________________________________________________________________________

SALVATION -Plain chords (Version B (Different chorus, verse as A))

CHORDS

    A     D     E     C    C#
|-----------------------------|
|-----------------------------|
|---------7-----9-----5----6--|
|---7-----7-----9-----5----6--|
|---7-----5-----7-----3----4--|
|---5-------------------------|


CHORUS:

A                      (pick scrape low E)
come on baby won't you show me what you got yeah
C C#        D          E
i want your salvation, whoa-oh

===============
SIDE KICK -Plain chords


    A    C    G    F    E
e---X----X----X----X----X----
B---X----X----X----X----X----
G--------5--------------4----
D---7----5----5----3----2----
A---7----3----5----3----2----
E---5----X----3----1----X----


A, C, G, A
A, C, G, A
A, C, G, A, C, G, A, C, G, F

A       C             G           F
I had a dream I was a vigilante's side kick
A       C            G            F         E
My name is Tim I'm a lesser known character
A       C             G           F
I had a dream I was a vigilante's side kick
A        C            G         F   
Fighting crime in the streets together

C              E
Down in Oakland off of West Grand
F                  G
Saint Joseph Relief Program
C                       E
A good place where good people get food yeah
F                      G
Help your fellow man a good thing to do yeah

C                     E
Government agency said be afraid of me I
F                        G
Shut your doors down and it won't phase me
C                              E
Wolverine came through left the agent for dead
F                          G
Backed up the doors back up everyone was fed

A       C             G           F
I had a dream I was a vigilante's side kick
A       C            G            F         E
My name is Tim I'm a lesser known character
A       C             G           F
I had a dream I was a vigilante's side kick
A        C            G         F   
Fighting crime in the streets together

C               E
Do not bill the abandoned buildings
F                           G
It's nice to sleep when you got a cieling
C                          E
Neighborhood watch said we gotta put a stop yeah
F                                 G
Can't have people living for free call the cops yeah

C                        E
Here comes the SWAT Team with the M16 to
F                  G
Shoot the walls in destroy the building
C                        E
Wolverine was sad and it made him mad
F                      G
Every single cop got a bullet in their head

A       C             G           F
I had a dream I was a vigilante's side kick
A       C            G            F         E
My name is Tim I'm a lesser known character
A       C             G           F
I had a dream I was a vigilante's side kick
A        C            G         F   
Fighting crime in the streets together

A, C, G, A
A, C, G, A
A, C, G, A, C, G, A, C, G, F


______________________________________________________________________________

SIDE KICK -Tablature

Intro:

     A  C  G  A    A  C  G  A    A C G A C G A C G F                           
E-|---------------------------------------------------------------------------|
B-|---------------------------------------------------------------------------|
G-|--2--5----------2--5----------2-5---2-5---2-5------------------------------|
D-|--2--5--5--7----2--5--5--7----2-5-5-2-5-5-2-5-5-3--------------------------|
A-|--0--3--5--7----0--3--5--7----0-3-5-0-3-5-0-3-5-3--------------------------|
E-|--------3--5----------3--5--------3-----3-----3-1--------------------------|
                                                                               
Chorus:

    A       C            G            F        A           C          G        
E-|---------------------------------------------------------------------------|
B-|---------------------------------------------------------------------------|
G-|-2-2-2-2-5-----5-5---5----------------------2-2-2----2--5--5-5---5---------|
D-|-2-2-2-2-5-----5-5---5-5-5-5--5----3---3----2-2-2----2--5--5-5---5-5--5----|
A-|-0-0-0-0-3-----3-3---3-5-5-5--5----3---3----0-0-0----0--3--3-3---3-5--5----|
E-|-----------------------3-3-3--3----1---1---------------------------3--3----|
    I had a dream I was a vigilante's sidekick. My name is Tim, I'm a lesser   
          
          F         E A       C             G           F       A              
E-|---------------------------------------------------------------------------|
B-|---------------------------------------------------------------------------|
G-|-------------------2-2-2-2-5-----5-5---5---------------------2-2---2-------|
D-|-5-----3---3---3-2-2-2-2-2-5-----5-5---5-5-5-5--5----3---3---2-2---2-------|
A-|-5-----3---3---3-2-0-0-0-0-3-----3-3---3-5-5-5--5----3---3---0-0---0-------|
E-|-3-----1---1---1-0-----------------------3-3-3--3----1---1-----------------|
    known character.  I had a dream I was a vigilante's sidekick. Fighting     
    
    C            G         F                                                   
E-|---------------------------------------------------------------------------|
B-|---------------------------------------------------------------------------|
G-|-5-5---5--5----------------------------------------------------------------|
D-|-5-5---5--5---5--5----5-3-3------------------------------------------------|
A-|-3-3---3--3---5--5----5-3-3------------------------------------------------|
E-|--------------3--3----3-1-1------------------------------------------------|
    crime in the streets together.                                             

Verse 1:    
    
    C                E                  F                    G                 
E-|---------------------------------------------------------------------------|
B-|---------------------------------------------------------------------------|
G-|-5----5--5--5--------------------------------------------------------------|
D-|-5----5--5--5-----2--2---2----2------3---3-3----3-3-----3/5----5--5--------|
A-|-3----3--3--3-----2--2---2----2------3---3-3----3-3-----3/5----5--5--------|
E-|------------------0--0---0----0------1---1-1----1-1-----1/3----3--3--------|
    Down in Oakland, off of West Grand. St. Joseph relief, a good program.     
    
    C                       E                F                     G           
E-|---------------------------------------------------------------------------|
B-|---------------------------------------------------------------------------|
G-|-5-5-5-5-5-5-5-5-5-5-5-5---------------------------------------------------|
D-|-5-5-5-5-5-5-5-5-5-5-5-5-2-2-2-2-2-2-2-2--3-3-3-3-3-3-3-3-3-3--3/5-5-5-5-5-|
A-|-3-3-3-3-3-3-3-3-3-3-3-3-2-2-2-2-2-2-2-2--3-3-3-3-3-3-3-3-3-3--3/5-5-5-5-5-|
E-|-------------------------0-0-0-0-0-0-0-0--1-1-1-1-1-1-1-1-1-1--1/3-3-3-3-3-|
    A good place where good people get food, help your fellow man a good thing 
          
          C                       E                   F                     G  
E-|---------------------------------------------------------------------------|
B-|---------------------------------------------------------------------------|
G-|-------5------5----5------5------------------------------------------------|
D-|-5-5-5-5------5----5------5----2-----2-----2-------3----3----3-----3-----5-|
A-|-5-5-5-3------3----3------3----2-----2-----2-------3----3----3-----3-----5-|
E-|-3-3-3-------------------------0-----0-----0-------1----1----1-----1-----3-|
    to do. Government agency said, be afraid of me. I shut your doors down, it 
                    
                    C                                E               F         
E-|---------------------------------------------------------------------------|
B-|---------------------------------------------------------------------------|
G-|-----------------5----5-----5----5-------5----5----------------------------|
D-|-5-----5-----5---5----5-----5----5-------5----5---2-2---2---2-----3------3-|
A-|-5-----5-----5---3----3-----3----3-------3----3---2-2---2---2-----3------3-|
E-|-3-----3-----3------------------------------------0-0---0---0-----1------1-|
    won't phase me. Wolverine came through, left the agent for dead. Opened up 
                       
                       G                                                       
E-|---------------------------------------------------------------------------|
B-|---------------------------------------------------------------------------|
G-|---------------------------------------------------------------------------|
D-|-3---3-----3----3---5--5-5---5---5-----------------------------------------|
A-|-3---3-----3----3---5--5-5---5---5-----------------------------------------|
E-|-1---1-----1----1---3--3-3---3---3-----------------------------------------|
    the doors back up. Everyone was fed.                                       

Song:

Intro
Chorus
Verse 1
Chorus
Verse 2
Chorus
Intro

Verse 2 Lyrics:

Do not bill the abandoned buildings,
it's nice to sleep when you've got a ceiling.
Neighborhood watch said we gotta put a stop,
can't have people livin' for free call the cops.
Here comes the SWAT team, and the M-16,
shoot the walls in, destroy the building.
Wolverine was sad and it made him mad,
every single cop got a bullet in the head.

=========
SOLIDARITY



    C    A    F    G    Bb
e---X----X----X----X----X----
B---X----X----X----X----X----
G---5-------------------3----
D---5----7----3----5----3----
A---3----7----3----5----1----
E---X----5----1----3----X----

C A F G C (repeat)

C          A
Solidarity love and unity
F                  C 
Set me free with a bullet and a gun

C                       Bb            F
You said it was nothing I knew it was something
C                       Bb        F
It was no surprise when I saw you crying

C                  
About you said now what went wrong
      Bb           F
About you said you can't go on
C
About you said it's a long time gone
      Bb            F
About you said your life's too long

C          A
Solidarity love and unity
F                  C 
Set me free with a bullet and a gun

C                    Bb              F
Didn't see it coming your fears went hunting
C               Bb        F
Nine millimeter stops you running

C
About you said the pressure's on
      Bb           F
About you said you can't go on
C
About you now you're long time gone
      Bb     F
About you so what went wrong

C          A
Solidarity love and unity
F                  C 
Set me free with a bullet and a gun

e-------------------------------------------
B-------------------------------------------
G-5-7--5-7--5-7-5-7-5-7-5-7-5-7-5-7-5-7-5-7-
D-------------------------------------------
A-------------------------------------------
E-------------------------------------------

C          A
Solidarity love and unity
F                  C 
Set me free with a bullet and a gun

==========

ST. MARY


    G    C    D
e---X----X----X----
B---X----X----X----
G---X----5----7----
D---5----5----7----
A---5----3----5----
E---3----X----X----

INTRO REEF:

e-3--3-3-3-3-3-3-3-3-3-3-3-3-3-3    -----------------------
B-3--3-3-3-3-3-3-3-3-3-3-3-3-3-3    3--3-3-3-3-3-3-3-3-3-3-
G-0--0-0-0-0-0-0-0-0-0-0-0-0-0-0    2--2-2-2-2-2-2-2-2-2-2-
D------------------------------- 3X 0--0-0-0-0-0-0-0-0-0-0-
A-------------------------------    ----------------------- 
E-------------------------------    -----------------------
(Repeat the side at the left of the 3X three times, then play
what's on the left of the 3X once)

While the lead guitar does the INTRO REEF, the rythmic guitar,
supports it by playing the following notes:

G(LET RING)--G(LET RING)--G(LET RING)--D(PLAY FAST)

(Hey Punx, You've gotta' join both reefs in this song, 
first play the intro reef, then 'exactly' after you finish 
it  you go into the REEF written below):


REEF:

TIP: To make a hammer really easy, you just, put your 
index finger covering two chords, e.g. to make hammer  e-2h3-
                                                       B-2h3-
 
You put your index finger covering e-2-, you sound
                                   B-2-
both chords (e & B) ONCE, and then you hammer your
middle finger on to e-3-
                    B-3-

                                   
h=Hammer, EG. 2h3= 2 hammer on to 3

e-2h3--3-3-3-3-3-3-3--3-3--3-3----------    
B-2S3--3-3-3-3-3-3-3--3-3--3-3----------    
G---------------------------------------    
D--------------------------------------- 2X 
A---------------------------------------    
E---------------------------------------    


e-2h3--3-3-2h3--3-3-2h3--3-3-2h3--3-3-----------------------
B-2h3--3-3-2h3--3-3-2h3--3-3-2h3--3-3-3--3-3-3-3-3-3-3-3-3-3
G-------------------------------------2--2-2-2-2-2-2-2-2-2-2
D-----------------------------------------------------------
A-----------------------------------------------------------
E-----------------------------------------------------------

(Repeat all of the reef two times, punx!)

While the lead guitar is playing the reef, the rythmic guitar
suppots it by playing the following chords:

G--C-G--C-G--C-G-D----  2X


VERSE:

G           D                C              G
She's got a ticket and she's waiting at the station
G            D             C                 G
She's got to get away get away as far as she can
G                  D       C                    G
Her problems will arise as sure as the sun does shine yeah
G            D           C               G
She's got to get used to life out on the lam

CHORUS:

C                                               G     C-G--C-G--
Now Mary's out the door with a loaded .44 in her hand
D                          C                              G--C-G--D----
Shooting down the law that shot down her dear departed man

VERSE:

G           D               C       G
When I last saw her she was looking troubled
G                    D       C          G
She said this is the 905 I'm gonna be alright
G                D     C      G
She took the Greyhound into Salinus
G       D               C             G
I got a letter then she dropped outta sight

CHORUS:

C                                               G     C-G--C-G--
Now Mary's out the door with a loaded .44 in her hand
D                          C                              G--C-G--D----
Shooting down the law that shot down her dear departed man

COOL VERSE:

G        D    C     G
Shrouded   in anger oh 
G              D      C            G
Encompassed oh yeah encompassed by pain
G   D       C           G
He was your best friend 
G                       D        C    G
And you will never ever ever see him again

CHORUS:

C                                               G     C-G--C-G--
Now Mary's out the door with a loaded .44 in her hand
D                          C                              G--C-G--D----
Shooting down the law that shot down her dear departed man

FINAL REEF:

e-2h3--3-3-3-3-3-3-3--3-3--3-3----------    
B-2h3--3-3-3-3-3-3-3--3-3--3-3----------    
G---------------------------------------    
D--------------------------------------- 2X 
A---------------------------------------    
E---------------------------------------    


e-2h3--3-3-2h3--3-3-2h3--3-3-2h3--3-3-----------------------
B-2h3--3-3-2h3--3-3-2h3--3-3-2h3--3-3-3--3-3-3-3-3-3-3-3-3-3
G-------------------------------------2--2-2-2-2-2-2-2-2-2-2
D-----------------------------------------------------------
A-----------------------------------------------------------
E-----------------------------------------------------------

While the lead guitar is playing the reef, the rythmic guitar
suppots it by playing the following chords:

G--C-G-G--C-G-G--C-G-D----

G--C-G-G--C-G-G--C-G-D----GXXXX

Repeat all the reef twice but at the end play G as the final chord.

STRUCTURE:

INTRO REEF
REEF
VERSE
CHORUS
VERSE
CHORUS
REEF
COOL VERSE
CHORUS
FINAL REEF.

=============

TENDERLOIN


     G    C    D
e|---X----X----X----|
B|---X----X----X----|
G|---X----5----7----|
D|---5----5----7----|
A|---5----3----5----|
E|---3----X----X----|

INTRO RIFF:
note: b=bend
      h=hammer on
e|-----6b---------------------6-6-6-3-|
B|-------------4h5-5-5----------------|
G|-7b------7b----------7b-7-7---------|
D|------------------------------------|
A|------------------------------------|
E|------------------------------------|
   
   G   D   G   C       G      D     G
e|-----6b---------------------6-6-6-3-|
B|-------------4h5-5-5----------------|
G|-7b------7b----------7b-7-7---------|
D|------------------------------------|
A|------------------------------------|
E|------------------------------------|

C              G
Realize you're dehumanized you
C         G      D
Criticize your existence
C                     G
It's your demise when no sun arise you know
C                 D
Paralyzed by your lack of resistence

    G                D
She knows she is she knows she's going
G                       C
Down the road where the fire's glowing
      G          D          G
Tenderloin tenderloin tenderloin 

    G                D
She knows she is she knows she's going
G                       C
Down the road where the fire's glowing
      G          D          G
Tenderloin tenderloin tenderloin 

C                        G
The tricks she gets them she's not a victim 
C                            G             D
She makes a list of them and reads it all alone
C                       G
For money she's walking down on Larkin
C                       D
In T.A. they're rocking all night long

    G                D
She knows she is she knows she's going
G                       C
Down the road where the fire's glowing
      G          D          G
Tenderloin tenderloin tenderloin 

    G                D
She knows she is she knows she's going
G                       C
Down the road where the fire's glowing
      G          D          G
Tenderloin tenderloin tenderloin

(/=#of times chord it hit)
G/// D/// G/// C/// G/// D/// G///////

(INTRO RIFF)
OUTRO RIFF:                    G (end)
e|-----------------------6-6-6-3-|
B|-----------------------6-6-6-3-|
G|-(gradual bend)7-7-7-----------|
D|-------------------------------|
A|-------------------------------|
E|-------------------------------|


=============
THE BALLAD OF JIMMY & JOHNNY


   C    F    A#
e--X----X----X----------
B--X----X----X----------
G--5----X----3----------
D--5----3----3----------
A--3----3----1----------
E--X----1----X----------


Verse:

C                     F
Jimmy and Johnny, two friends of mine
A#                   C
Skinheads what they claim                    (D|-5-5-5--3--2--0-|)
C           F            A#                      C
Outside similarities but no, they don't feel the same

    C                       F
See Johnny thinks Jimmy's a mod
    A#                      C
And Jimmy thinks Johnny's a punk
C                F       A#                 C
Jimmy listens to ska and Johnny likes Last Resort

C                       F         A#           C
Jimmy and Johnny in the trenches, going down tonight
C                          F
Drinking Guinness, smoking 555's
A#                             C
Once you're in the middle everything's all right


Prechorus:

   C                  F            A#                   C
e|---------------------1-1-1-1-1-1------------------------------------|
B|--1--1-1--1-1--1-1-------------------------------------1-1-1-1-1-1--|
G|----------------------------------3-3-3-3-3-3-3-3-3-3---------------|
   Skinhead tats and a Fred Perry, there's a war in the  cemetary
    
   C                F             A#                   C
e|---------------------1-1-1-1-1-1------------------------------------|
B|--1--1-1--1-1--1-1-------------------------------------1-1-1-1-1-1--|
G|----------------------------------3-3-3-3-3-3-3-3-3-3---------------|
   Started fighting  Stop drinking  What the fuck       were they thinking?


Chorus:

    F                C
e|------------------------------------|
B|--6-6-6-6-6-6-6----8-8-8-8-8-8-8-8--|
G|--5-5-5-5-5-5-5----8-8-8-8-8-8-8-8--|

A#
Jimmy and Johnny, tell me what you were seeing

    F                C
e|------------------------------------|
B|--6-6-6-6-6-6-6----8-8-8-8-8-8-8-8--|
G|--5-5-5-5-5-5-5----8-8-8-8-8-8-8-8--|

A#
Jimmy and Johnny, tell me what you were seeing

F     C           A#
Yeah, yeah, yeah, yeah!
F     C           A#
Yeah, yeah, yeah, yeah!


Verse:

C             F                  A#                  C
Jimmy had his two-tone girl back on his scooter that night
C            F                          A#                  C
Johnny had a jacked up Chevy that could blow you right off, off the line

[PRECHORUS]

[CHORUS]

Bridge:

C C C F  F  A# A# A# C

C C C F  F  A# A# A# C

[CHORUS]

C C C F  F  A# A# A# C

===========



THAT ALOT OF TAB....

AND THAT ALL FOLKS!!!!!!!!


HTTP://PUNKGUITARIST.50G.COM
Comments