Rancid - Killing Zone Chords & Tabs

 

Killing Zone Chords & Tabs

Rancid Chords & Tabs

Version: 2 Type: Tab 0 ratings
1 star 2 stars 3 stars 4 stars 5 stars
comments

Killing Zone Tab

   
Tabbed By: CorporalHicks

SONG: Killing Zone
ALBUM: Indestructible B-Side
BAND: Rancid

INTRO
e|---------------------------------------------------|X
B|---------------------------------------------------|X
G|-----------------------------6-----6-----8-8-8-8-6-|
D|-----8-----8-----8-----8-----6-----6-----8-8-8-8-6-|
A|-----8-----8-----8-----8-4-4-4-4-4-4-4-4-6-6-6-6-4-|
E|-6-6-6-6-6-6-6-6-6-6-6-6---------------------------|
[ Tab from: http://www.guitartabs.cc/tabs/r/rancid/killing_zone_tab_ver_2.html ]
VERSE
e|---------------------------------------------------|X
B|---------------------------------------------------|X
G|-----------------------------6-----6-----8-8-8-8-6-|
D|-----8-----8-----8-----8-----6-----6-----8-8-8-8-6-|
A|-----8-----8-----8-----8-4-4-4-4-4-4-4-4-6-6-6-6-4-|
E|-6-6-6-6-6-6-6-6-6-6-6-6---------------------------|

PRE CHORUS
e|--------------------------|X
B|--------------------------|X
G|-13-13----11--13-13----11-|
D|-13-13-11-11--13-13-11-11-|
A|-11-11-11--9--11-11-11--9-|
E|--------9------------9----|

CHORUS
e|---------------------------------|X
B|---------------------------------|X
G|-----------------6-6-6-6-6-6-6-6-|
D|-8-8-8-8-8-8-8-8-6-6-6-6-6-6-6-6-|
A|-8-8-8-8-8-8-8-8-4-4-4-4-4-4-4-4-|
E|-6-6-6-6-6-6-6-6-----------------|

INTRO      - X2
VERSE      - X4
PRE CHORUS - X1
CHORUS     - X4
VERSE      - X4
PRE CHORUS - X1
CHORUS     - X4
SOLO*      -
CHORUS     - X8

*Solo to come
Comments