Rancid - Just A Feeling Chords & Tabs

 

Just A Feeling Chords & Tabs

Rancid Chords & Tabs

Version: 2 Type: Bass Tab 0 ratings
1 star 2 stars 3 stars 4 stars 5 stars
comments

Just A Feeling Bass Tab

   
Rancid
"Just a Feeling"
Radio Single
By: Alec(misfit809@Hotmail.com)

Intro:

G:-9---9-11-9-12-12-12-9---9-11-9-12>|
D:-8-9-8-10-8-11-11-11-8-9-8-10-8-11>|
A:---8-------------------9-----------|
E:-----------------------------------|
[ Tab from: http://www.guitartabs.cc/tabs/r/rancid/just_a_feeling_btab_ver_2.html ]
Verse:
        x4                x4
G:----------------|-----------------|
D:----------------|-----------------|
A:-----------4-5-7|-----------------|
E:-0-4-5-7-5------|-0-0-0-3-5-5-5-3-|

Chorus:
           x4
G:----------------------------------|
D:----------------------------------|
A:-0-0-0-0-0-2-0--------------------|
E:---------------4-2-0-0-0-0-0-0-0-0|

Outro:

G:---------------9-8-7------|
D:---------------------9-8-7|
A:---------4-5-7------------|
E:-0-4-5-7------------------|

Comments