Rancid - Junkie Man Chords & Tabs

 

Junkie Man Chords & Tabs

Rancid Chords & Tabs

Version: 1 Type: Bass Tab

Junkie Man Bass Tab

=========================================================================
	    Junkie Man - Rancid - And Out Come the Wolves		
=========================================================================

Tabbed by: John G.
E-mail: apathyspam@hotmail.com



Intro:

G|----------------------------------------|
D|----------------------------------------|
A|---0-3-0--------0-30-5------553322220---|
E|----------------------------------------|

Riff1:

G|----------------------------------------|
D|--------------------------7775-557------|
A|--0-0-000-7777-7775-5-555---------------|
E|----------------------------------------|

Riff2:

G|------------------------------------------|
D|------------------------------------------|
A|-----------------------5535-553-5-5-5353--|
E|--5-5--5353--5-5-5353---------------------|

G|--------------------------------------------|
D|--------------------------------------------|
A|-----------------------5535-553-5-5-3-5p30--|
E|--5-5--5353--5-5-5353-----------------------|
[ Tab from: http://www.guitartabs.cc/tabs/r/rancid/junkie_man_btab.html ]
Riff3:
                    x2
G|--------------------|
D|--------------------|
A|----0-2-45-54-2-0---|
E|--2-----------------|

G|--------------------------------|
D|--------------------------------|
A|----0-2-45-54-5-6-7--7\5-5p4-2--|
E|--2-----------------------------|

Riff4:

G|----------------------|
D|----------------------|
A|--0>-030-5>-55445557--|
E|----------------------|

G|------------------------|
D|------------------------|
A|--0>-030-5>-55-3332220--|
E|------------------------|

\ - Slide down
> - Play multiple times

=========================================================================

Order:

Intro
Riff1 x2
Riff2 x2
Riff1 x2
Riff3
Riff4
Riff2 x2
Riff1 x2
Riff3
Riff4
Riff1 x4 (No guitar)
Riff3
Riff1 x2
Riff3
End

=========================================================================

Notes:

This is my first tab, and my favorite song to play right now. 
Comments/Suggestions are welcome and appreciated. Enjoy.

=========================================================================