Rancid - Journey To The End Of The East Bay Chords & Tabs

 

Journey To The End Of The East Bay Chords & Tabs

Rancid Chords & Tabs

Version: 2 Type: Tab 0 ratings
1 star 2 stars 3 stars 4 stars 5 stars
comments

Journey To The End Of The East Bay Tab

song: Journey to the End of the East Bay
album: ...and out come the wolves
artist: Rancid

this is 100% correct my band plays it and it sounds awesome.

 Intro (guitar 1)
E--3-3-3-3-3-3-3-3-3-3-3-3-3-3-3-3-5-5-5-5-5-5-5-5-1-1-1-1-1-1-1-1-3-
B--5-5-5-5-5-5-5-5-3-3-3-3-3-3-3-3-5-5-5-5-5-5-5-5-1-1-1-1-1-1-1-1-5-
G--5-5-5-5-5-5-5-5-4-4-4-4-4-4-4-4-5-5-5-5-5-5-5-5-2-2-2-2-2-2-2-2-5-
D------------------5-5-5-5-5-5-5-5-7-7-7-7-7-7-7-7-3-3-3-3-3-3-3-3---
A--------------------------------------------------------------------
E--------------------------------------------------------------------


 Intro (cont.)
E-3-3-3-3-3-3-3-3-3-3-3-3-3-3-3-1-1-1-1-1-1-1-1-1-1-1-1-1-1-1-1---|
B-5-5-5-5-5-5-5-3-3-3-3-3-3-3-3-1-1-1-1-1-1-1-1-1-1-1-1-1-1-1-1---|
G-5-5-5-5-5-5-5-4-4-4-4-4-4-4-4-2-2-2-2-2-2-2-2-2-2-2-2-2-2-2-2---|
D---------------5-5-5-5-5-5-5-5-3-3-3-3-3-3-3-3-3-3-3-3-3-3-3-3---|
A-----------------------------------------------------------------|
E-----------------------------------------------------------------|

[ Tab from: http://www.guitartabs.cc/tabs/r/rancid/journey_to_the_end_of_the_east_bay_tab_ver_2.html ]
 Intro (guitar 2)
E------------------------------------------------------------------|
B------------------------------------------------------------------|
G--5---------------------------------------------------------------|
D--5-(8x)---5--------7--------3--------5--------5--------3---------|
A--3--------5-(8x)---7-(8x)---3-(8x)---3--(8x)--5-(8x)---3-(16x)---|
E-----------3--------5--------1-----------------3--------1---------|


E-------------------|
B-------------------|
G---5---------------| play these chords in the verse and chorus just
D---5---5---7---3---| change the rythm and make sure you palm mute during
A---3---5---7---3---| the verse.
E-------3---5---1---|

 OUTRO
E-------------------------------------------|
B-------------------------------------------|
G---5---------------5-------------------5---|
D---5---5---7---3---5---5---7---5---3---5---|
A---3---5---7---3---3---5---7---5---3---3---|
E-------3---5---1-------3---5---3---1-------|


E------8---|
B---8------|
G----------| one of the guitars doodles around with these two notes 
D----------| during the outro.
A----------|
E----------|
Comments