Rancid - If The Kids Are United Chords & Tabs

 

If The Kids Are United Chords & Tabs

Rancid Chords & Tabs

Version: 1 Type: Bass Tab 0 ratings
1 star 2 stars 3 stars 4 stars 5 stars
comments

If The Kids Are United Bass Tab

Song: If The Kids Are United
Band: Rancid
Album: Give'em The Boot II
Tabbed by: T.J. (Krazy4krn@aol.com)

This song is pretty cool.  You have to be fast with a pick to play the intro. I 
had to figure out the intro by ear.  It was hard but I got it. Here it is:

Intro and Solo: (PLAY FAST)
G: --------------------------------------------------------------5--------|
D: -7-7-5-5-4-4-----------------------5-5-4-4---------------55677-7765----|
A: ------------7-7-5-4-5-4-5-4-5-7-7---------7-7------55677-----------765-|
E: ----------------------------------------------55677-------------------5|
[ Tab from: http://www.guitartabs.cc/tabs/r/rancid/if_the_kids_are_united_btab.html ]
Riff:
G: -------------------------------------------|
D: -------------------------------------------|
A: -------------------------------------------|
E: -5-3-5-3-5-3-5-3-5-3-5-3-5-3-5-3-5---------|

Verse: *=play many times
G: --------------------|
D: --------------------|
A: ----7*--------------|
E: -5*----3*-5*--------|

Chorus: (play fast)
G: -------------------------------------------------------------|
D: -7-7-5-5-4-4----------------------5-5-4-4--------------------|
A: -------------7-7-5-4-5-4-5-4-5-7-7-------7-7---4-4-5-5-7-7---|
E: --------------------------------------------5-5--------------|

During guitar solo, play Riff.

Comments