Rancid - I Wanna Riot Chords & Tabs

 

I Wanna Riot Chords & Tabs

Rancid Chords & Tabs

Version: 3 Type: Bass Tab 0 ratings
1 star 2 stars 3 stars 4 stars 5 stars
comments

I Wanna Riot Bass Tab

Intro:
G|------------------7-6-5-----------------------------|
D|---3-5-----3-5----------77-6-5----------------------|
A|-5------55------------------------------------------|
E|----------------------------------------------------|

Bridge:
G|----------------------------------------------------|
D|-3-3-3-3--4---5555----3332-3---5-5-543--------------|
A|-------------------5--------------------------------|
E|----------------------------------------------------|
[ Tab from: http://www.guitartabs.cc/tabs/r/rancid/i_wanna_riot_btab_ver_3.html ]
Verse
|----------------------------------------------------|
|----------------------------------------------------|
|--54-3----5-4-3--------------2-3-4-5----------------|
|-------5--------5----1-0-2-0------------------------|

Chorus (this doesn't quite fit but i think its close...maybe)
|----------------------------------------------------|
|--------7575------3-5-------------------------------|
|--5656----------5-----------------------------------|
|----------------------------------------------------|

i think that's it
Comments