Rancid - I Wanna Riot Chords & Tabs

 

I Wanna Riot Chords & Tabs

Rancid Chords & Tabs

Version: 2 Type: Bass Tab 0 ratings
1 star 2 stars 3 stars 4 stars 5 stars
comments

I Wanna Riot Bass Tab

Rancid
I WANNA RIOT
[ Tab from: http://www.guitartabs.cc/tabs/r/rancid/i_wanna_riot_btab_ver_2.html ]
Intro:
G:-----------------------------------------------------
D:-------------------------12---11---10----------------
A:5---8---10---5-5--8--10-----------------12-12--11--10
E:-----------------------------------------------------
Guitar solo: (Repeat 3x)
G:------------------------------------------------
D:------------7-7-7-7------3-2--3--4--5--5--5-3-2-
A:5-5-5-4--5----------5---------------------------
E:------------------------------------------------
Thing right before verse:
G:----------------------------
D:12---11---10----------------
A:---------------12-12--11--10
E:----------------------------
Verse:
G:------------------------------------------------
D:------------------------------------------------
A:-5-4--3-----5--4--3--------------------2--3--4--
E:---------3-----------5---1-0--1--2--3-----------
Chorus: (Repeat 1x, 3x for ending)
G:-------------------------------------------------------------
D:--------7---9-----------7---9-----------7---9----------------
A:5-5-5-8---8---8-5-5-5-8---8---8-5-5-5-8---8---8-5---8---10---
E:-------------------------------------------------------------

Figured out by Fidget

Comments