Rancid - I Am Forever Chords & Tabs

 

I Am Forever Chords & Tabs

Rancid Chords & Tabs

Version: 2 Type: Bass Tab 0 ratings
1 star 2 stars 3 stars 4 stars 5 stars
comments

I Am Forever Bass Tab

Rancid
"I am Forever"
RANcid (2000)
by: joe (joemamabudz@aol.com)
[ Tab from: http://www.guitartabs.cc/tabs/r/rancid/i_am_forever_btab_ver_2.html ]
Intro:
         do twice then......
G:---------------------------4-6-4---|--|
D:-----------------4-4-4-4-6-------6-|-9|
A:---------4-4-4-4-------------------|--|
E:-6-6-6-6---------------------------|--|

Verses:
do 4 times then:
G:------------------|
D:-----------0-4-4-4|
A:-2-2-2-2-2--------|
E:------------------|

Chorus:
     do 4 times
G:----------4-3-3-3-3-3-4|
D:-2-2-2-2-2-------------|
A:-----------------------|
E:-----------------------|


Comments