Rancid - Hyena Chords & Tabs

 

Hyena Chords & Tabs

Rancid Chords & Tabs

Version: 1 Type: Bass Tab 0 ratings
1 star 2 stars 3 stars 4 stars 5 stars
comments

Hyena Bass Tab

Intro: 
	G:------------------------------------------------------------------------------------------------------------------- 
	D:---------0--0-p1-0------------0-0-p1-0------------0-0p1-0----------------3------------
	A:--1-1-p3-----------3-1--1-1p3-----------3-1--1-p3---------3-1-3-2-3-4-5-----5-4-3-3-1-
	E:3----------------------3--------------------3----------------------------------------------------
Verse: 
	G:------------------------------- 
	D:---5-3------------------------ 
	A:---------5-2-2-3-3-2-2-3-3-	
	E:3------------------------------ 
Chorus: 
	G:-------------------------------------------------------------- ------------------------
	D:-------------------------------3-3-3------3-3-3-3----------------------------------- 
	A:-----------3-3-3-2-1-1-1-3---------3----------------3-3-3-3-6-5-3-1-0---------- 
	E:1-1-1-1--------------------------------------------------------------------------3-1 

3rd Verse: 
	G:---------------- 
	D:----------1-1----- 
	A:---------------1-3- 
	E:1-1-1-1---------

Next Part
	G:------------------------------- 
	D:------------------3-1-1-1-1-1-2-2-3 
	A:-------------------------------
	E:1-1-1-1-1-3-1------------------ 
[ Tab from: http://www.guitartabs.cc/tabs/r/rancid/hyena_btab.html ]
Comments