Rancid - Hooligans Chords & Tabs

 

Hooligans Chords & Tabs

Rancid Chords & Tabs

Version: 1 Type: Tab 0 ratings
1 star 2 stars 3 stars 4 stars 5 stars
comments

Hooligans Tab

   
intro solo 

E----/-----------------------------------------------------
B---8/17~-17-17-15-13-12-12---~----------------------------
G-------------------------------12-14-14(b1/4)14(full)-----
D----------------------------------------------------------
A----------------------------------------------------------
E----------------------------------------------------------

E------------------------------------------------------
B---17-17-\15-\13-\12--\-10--\8------------------------
G------------------------------------------------------
D------------------------------------------------------
A------------------------------------------------------
E------------------------------------------------------

G (let ring)
 Yeah!  
                                      C D G (strike each chord once)
Here's the new face of rock-n'-roll!  
                                 G (let ring)
It's about fightin' toe to toe...  

Hard times come

Yeah the hard times go 
           C         D         G  (strike each chord once)
When I say, come one, come all

             G             D             G             D
Well all the hooligans and rudeboys know one thing for sure
C          D             G
Scars been stricken on their face
             G             D             G             D
Well all the hooligans and rudeboys know one thing for sure
C          D             G
Scars been stricken on their face

B                                                 G
One man's decision brings another's opposition completely unbound.  
A                                            D
Down on the flats where the seaside meets my lonely youngtown 

fill 
E----555-----3-----3--------------------------------------------
B----555--6b----6b----------------------------------------------
G----------------------------------------------------------------
D----------------------------------------------------------------
A----------------------------------------------------------------
E---------------------------------------------------------------- 
             B                                                           G
Well all the rudies and skins well they're out on the streets making
the way on the rift  
            A                                             D
between the bottles and sex they smash and they wreck for something 
to live 

fill 
E----555-----3-----3--------------------------------------------
B----555--6b----6b----------------------------------------------
G----------------------------------------------------------------
D----------------------------------------------------------------
A----------------------------------------------------------------
E---------------------------------------------------------------- 
             G             D             G             D
Well all the hooligans and rudeboys know one thing for sure
C          D             G
Scars been stricken on their face
             G             D             G             D
Well all the hooligans and rudeboys know one thing for sure
C          D             G
Scars been stricken on their face

B                                                  G
Sometimes you know there's no place to go but to a long life of crime. 
              A                                             D
Yeah but it's so wrong to steal someone's very last meal to profit up a dime. 
[ Tab from: http://www.guitartabs.cc/tabs/r/rancid/hooligans_tab.html ]
fill  you can vary this as you may
E----555-----3-----3--------------------------------------------
B----555--6-----6-----------------------------------------------
G---------5b----5b----------------------------------------------
D----------------------------------------------------------------
A----------------------------------------------------------------
E---------------------------------------------------------------- 
         B                                             G
Your poe poes and greys well they end up in jail gonna swing the cowboys  
         A                                            D
Well you took a bite outta the apple of decision that got ya there boy.

fill 
E----555-----333-------------------------------------------------
B----555--6b-----------------------------------------------------
G----------------------------------------------------------------
D----------------------------------------------------------------
A----------------------------------------------------------------
E---------------------------------------------------------------- 
  

             G             D             G             D
Well all the hooligans and rudeboys know one thing for sure
C          D             G
Scars been stricken on their face
             G             D             G             D
Well all the hooligans and rudeboys know one thing for sure
C          D             G
Scars been stricken on their face

G (let ring)                                            C D G (strike 
each chord once)

E----/-----------------------------------------------------
B---8/17~-17-17-15-13-12-12---~----------------------------
G-------------------------------12-14-14(b1/4)14(full)-----
D----------------------------------------------------------
A----------------------------------------------------------
E----------------------------------------------------------

E------------------------------------------------------
B---17-17-\15-\13-\12-/----\-10--\8--------------------
G------------------------------------------------------
D------------------------------------------------------
A------------------------------------------------------
E------------------------------------------------------
 Hooligans and rudeboys, I don't want no racial hatred

G (let ring)
                                                
"Black and white, who are portrayed without bias. 
  C                             D                G (strike each chord once)
These are the people whose voice I want to be..."  

use this here. but in the live video tim cant play this

E----/-----------------------------------------------------
B---8/17~-17-17-15-13-12-12---~----------------------------
G-------------------------------12-14-14(b1/4)14(full)-----
D----------------------------------------------------------
A----------------------------------------------------------
E----------------------------------------------------------

E------------------------------------------------------
B---17-17-\15-\13-\12-/--\-10--\8----------------------
G------------------------------------------------------
D------------------------------------------------------
A------------------------------------------------------
E------------------------------------------------------
 Hooligans and rudeboys, I don't want no racial hatred

I said the hooligans!
Rancid
Rudeboys!
Rancid
Hooligans!
Rancid
Rudeboys!
Rancid

fuck around with it where you want
and use variations im olny tabbing it out to my ear not to what sounds best
      
       G             D             G             D
Well all the hooligans and rudeboys know one thing for sure
C          D             G
Scars been stricken on their face
             G             D             G             D
Well all the hooligans and rudeboys know one thing for sure
C    D     G
Ahhh ahhhh ahhhhhh...
Comments