Rancid - Hooligans Chords & Tabs

 

Hooligans Chords & Tabs

Rancid Chords & Tabs

Version: 2 Type: Bass Tab 0 ratings
1 star 2 stars 3 stars 4 stars 5 stars
comments

Hooligans Bass Tab

Song: Hooligans
Band: Rancid
Bassist: Matt Freeman
Tabbed by: James Bradley

I used dexter86holland's tab to fix this up, he didn't have it quite right.

Intro:
G:---------------------------------------
D:------4-2-0----------------------------
A:------------3-5------------------------
E:----3----------------------------------
[ Tab from: http://www.guitartabs.cc/tabs/r/rancid/hooligans_btab_ver_2.html ]
Chorus:
G:--------------------------------------------------
D:-------4-7------9---------2-5---4-7----5-5-5-3----
A:-2-5--5-----7-10----2-5--3-----5---------------5-3
E:3------------------3-----------------3------------

Verse:
G:-44444-------------------------------------------------
D:----------------------555-3-------------77777-5--------
A:2-------2--------5555-------5-3---4-5-7--------7-555555
E:---------5-3-2--3----------------5---------------------

End:
G:---------------------------------------
D:---------------------------------------
A:--3-5----------------------------------
E:------3--------------------------------
Comments