Rancid - Gunshot Chords & Tabs

 

Gunshot Chords & Tabs

Rancid Chords & Tabs

Version: 2 Type: Bass Tab

Gunshot Bass Tab

Rancid
GUNSHOT



INTRO:
To play this well, follow the guitars reef rythm, punx!
G-----------------------------------------------------
D-----------------------------------------------------
A-3--3-3-3-3-3-3-----------3--3-3-3-3-3-3-1--1-0--0-0-     2X
E---------------1--3-1--1-1---------------------------
VERSE:
Everybody wants to come down but...
G---------------------------------------------
D------------------------------2-----7--4-----
A---------------2-----------3-----3--------5--       4X
E-3--3-3-3-3-3-3---3-3--3-3-------------------
CHORUS:
Gunshot!!!
G----------------------------------
D----------------------------------
A-3--3-3-3-3-2-0-------------------         3X
E---------------3--3-3-3-3-3-3-3-3-
G-----------------------------------------------------
D-----------------------------------------------------
A-3--3-3-3-3-2-0---------------5--5-5-5-5-5-5-5-5-5-5-
E---------------3--3-3-3-3-3-3------------------------
BRIDGE:
2-3-2-3-2-2-3-2-3 (REPEAT 4X).
[ Tab from: http://www.guitartabs.cc/tabs/r/rancid/gunshot_btab_ver_2.html ]
GUITAR SOLO PART:
G--------------------------------------------------------
D--------------------------------------------------------
A---------------------------3--3-3-3-3-3-3--5--5-5-5-5-5-       4X
E-3--3-3-3-3-3--3--3-3-3-3-3-----------------------------
FINAL CHORUS:
G----------------------------------
D----------------------------------
A-3--3-3-3-3-2-0-------------------         3X
E---------------3--3-3-3-3-3-3-3-3-
G-----------------------------------------------------
D-----------------------------------------------------
A-3--3-3-3-3-2-0---------------5--5-5-5-5-5-5-5-5-5-5-
E---------------3--3-3-3-3-3-3------------------------
G----------------------------------
D----------------------------------
A-3--3-3-3-3-2-0-------------------         3X
E---------------3--3-3-3-3-3-3-3-3-
G--------------------------------------------------------------
D--------------------------------------------------------------
A-3--3-3-3-3-2-0---------------5--5-5-5-5-5-5-5-5-5-5----------
E---------------3--3-3-3-3-3-3------------------------3XXXXXXX-

STRUCTURE:
INTRO
VERSE
CHORUS
VERSE
CHORUS
BRIDGE
VERSE
GUITAR SOLO PART
FINAL CHORUS.
THE END.
Deciphered, decoded, and transcribed by "CHITO", Bassist for "POSE 69", formerly
named "FAUCET".
Punx NOT dead!!!