Rancid - Ghost Band Chords & Tabs

 

Ghost Band Chords & Tabs

Rancid Chords & Tabs

Version: 2 Type: Tab 0 ratings
1 star 2 stars 3 stars 4 stars 5 stars
comments

Ghost Band Tab

song     ghost band
band     rancid
taby     eaiddhi (eaiddhi@baganmail.net.mm)
tuning   standard

 
|---------------|
|---------------|
|-8-----5----8--|
|-8--6--5--8-8--| x2
|-6--6--3--8-6--|
|----4-----6----|
[ Tab from: http://www.guitartabs.cc/tabs/r/rancid/ghost_band_tab_ver_2.html ]
 
|----------|
|----------|
|-----8----|
|--6--8----|
|--6--6----|
|--4-------|
 P.M.
|-------------|
|-------------|
|------8------|
|--5---8--8---|
|--5---6--8---|
|--3------6---|

 
 
 

O.k thats it. I cant figure out the ending part. Listen to the song for your right hand.
Enjoy...
Comments