Rancid - Ggf Chords & Tabs

 

Ggf Chords & Tabs

Rancid Chords & Tabs

Version: 1 Type: Bass Tab 0 ratings
1 star 2 stars 3 stars 4 stars 5 stars
comments

Ggf Bass Tab

Rancid
"GGF"
Rancid (2000)
By: Alec(misfit809@Hotmail.com)

Intro & CHorus:
G:---------|
D:---------|
A:---3>--5>|
E:-3>--3>--|

Verse:

G:---------------------------------|
D:---------------------------------|
A:-3-3-3-3---------5-3-2-----------|
E:---------3-3-3-3-------3-3-3-3-3-|

Pre-Chorus:
[ Tab from: http://www.guitartabs.cc/tabs/r/rancid/ggf_btab.html ]
G:-----------------------------------5-6-7-|
D:-------3-3-5---------3-3-5---------------|
A:-5-5-5-------5-5-5-5-------5-5-5-5-------|
E:-----------------------------------------|

Second Pre-Chorus (:50-1:10)

G:-7>-5-6-7>-5-6-7>5-6-7>-5-6-7-|

Big Al Part: (1:32-2:49) & (3:02-3:13)

A:-3-3-3-3-3-5-----------5-3---------------|
E:-------------3-3-3-3-3-----6--3-3-3-3-3-3|

Pre-Outro:

G:--------------------7----------------7--------|
D:----8-9-10-10-10-10--------------------10-8---|
A:-10------------------10-10-10-10-10--------10>|
E:----------------------------------------------|

Outro:

A:-3---5---|
E:---3---3-|

Comments