Rancid - Fall Back Down Chords & Tabs

 

Fall Back Down Chords & Tabs

Rancid Chords & Tabs

Version: 4 Type: Tab 0 ratings
1 star 2 stars 3 stars 4 stars 5 stars
comments

Fall Back Down Tab

   
Artist: Rancid
Song: Fall Back Down
Album: Indestructible
Guitarists: Tim Armstrong and Lars Fredricksen

This tab may not be 100%, but it is damn near close and it
sounds just fine to me. So here it goes.

KEY: ~-let ring h-hammer on p-pull off
Guitar parts (Semi-guesses w/ help from music video)
Guitar 1-Tim
Guitar 2-Lars

Intro (Guitar 1-clean w/ reverb)

e----------------------------------
B-9-------10------14-------9-------
G-9-------11------14-------9-------
D-9-------11------14-------9-------
A-7--------9------12-------7-------
E----------------------------------

Verse (Guitar 2-distortion)

e----------------------------------
B-9---------------10---------------
G-9---------------11---------------
D-9---------------11---------------
A-7----------------9---------------
E----------------------------------
  
e----------------------------------
B-14---------------9---------------
G-14---------------9---------------
D-14---------------9---------------
A-12---------------7---------------
E----------------------------------

e----------------------------------
B-9---------------10---------------
G-9---------------11---------------
D-9---------------11---------------
A-7----------------9---------------
E----------------------------------

e----------------------------------
B-14-------------------------------
G-14---------------444444444444444-
D-14---------------444444444444444-
A-12---------------222222222222222-
E----------------------------------
  
e-----------------
B-----------------
G-444444444444444-
D-444444444444444-
A-222222222222222-
E-----------------

Verse (Guitar 1-distortion)

e-0---------------2----------------
B-0---------------2----------------
G-1---------------2----------------
D-2---------------4----------------
A-2---------------4----------------
E-0---------------2----------------

e-0---------------0----------------
B-2---------------0----------------
G-2---------------1----------------
D-2---------------2----------------
A-0---------------2----------------
E-----------------0----------------

e-0---------------2----------------
B-0---------------2----------------
G-1---------------2----------------
D-2---------------4----------------
A-2---------------4----------------
E-0---------------2----------------

e-0---------------0----------------
B-2---------------0----------------
G-2---------------1--4-x32---------
D-2---------------2--4-x32---------
A-0---------------2--2-x32---------
E-----------------0----------------
 
Chorus (Guitars 1 and 2-distortion)

e-000000-222222-000000-000000-
B-000000-222222-222222-000000-
G-111111-222222-222222-111111-
D-222222-444444-222222-222222-     x4
A-222222-444444-000000-222222-
E-000000-222222--------000000-

Interlude (Guitar 1-distortion)

e-444444444444444-000000000000000--
B-555555555555555-000000000000000--
G-666666666666666-111111111111111--
D-666666666666666-222222222222222--     
A-444444444444444-222222222222222--
E-----------------000000000000000--
                  			x2
e----------------------------------
B----------------------------------
G-444444444444444-222222222222222--
D-444444444444444-222222222222222--     
A-222222222222222-000000000000000--
E----------------------------------

Interlude (Guitar 2-distortion)

e----------------------------------
B----------------------------------
G-666666666666666-999999999999999--
D-666666666666666-999999999999999--     
A-444444444444444-777777777777777--
E----------------------------------
					x2
e----------------------------------
B----------------------------------
G-444444444444444-222222222222222--
D-444444444444444-222222222222222--     
A-222222222222222-000000000000000--
E----------------------------------

Tim's Solo (Guitar 1-clean)

e----------------------------------
B-9999-10--9999-10--9999-10--9~----
G-9999-11--9999-11--9999-11--9~----
D----------------------------------
A----------------------------------
E----------------------------------

e---------------------------------------------
B-9999-10/-12121212-10/-12--------12-10-10-99-
G-9999-11/-13131313-11/-13--------13-11-11-99-
D---------------------------------------------
A---------------------------------------------
E---------------------------------------------

e---------------------------------------
B-14-12-10/12-12-10109--14-12-1010-9999-
G-14-13-11/13-13-11119--14-13-1111-9999-
D---------------------------------------
A---------------------------------------
E---------------------------------------

e---------------------------------------
B-9999-10--9999-10/-12121212-10-10-9999-
G-9999-11--9999-11/-13131313-11-11-9999-
D---------------------------------------
A---------------------------------------
E---------------------------------------

(First measure of second verse)
[ Tab from: http://www.guitartabs.cc/tabs/r/rancid/fall_back_down_tab_ver_4.html ]
e----------------------------------
B-99~------------------------------
G-99~------------------------------
D----------------------------------
A----------------------------------
E----------------------------------

Guitar 2 plays this under Tim's solo

e-0000000-2222222-0000000-00000000-
B-0000000-2222222-2222222-00000000-
G-1111111-2222222-2222222-11111111-
D-2222222-4444444-2222222-22222222-     x4
A-2222222-4444444-0000000-22222222-
E-0000000-2222222---------00000000-

verse and chorus...and then...

Lars' solo (Guitar 2-distortion w/ some sort of boost/overdrive)

(starts at very end of chorus)
e----------------------------------
B----------------------------------
G----------------------------------
D----------------------------------
A-7p6h7p6h7~--9-7-6-7~--9-777p6~---
E----------------------------------

e----------------------------------
B----------------------------------
G----------------------------------
D----------------------------------
A-6666p4~--------------------------
E----------------------------------

e----------------------------------
B----------------------------------
G----------------------------------
D----------------------------------
A-7p6h7p6h7~--9-7-6-7~--9-777p6~---
E----------------------------------

e----------------------------------
B----------------------------------
G----------------------------------
D----------------------------------
A-6666p4~--------------------------
E----------------------------------

Guitar 1 plays this under Lar's solo

e----------------------------------
B----------------------------------
G-666666666666666-999999999999999--
D-666666666666666-999999999999999--     
A-444444444444444-777777777777777--
E----------------------------------
x2
e----------------------------------
B----------------------------------
G-444444444444444-222222222222222--
D-444444444444444-222222222222222--     
A-222222222222222-000000000000000--
E----------------------------------



Last chorus (Guitars 1 and 2-distortion)

e-0-0-----2-2-----0-0-----0-0------
B-0-0-----2-2-----2-2-----0-0------
G-1-1-----2-2-----2-2-----1-1------
D-2-2-----4-4-----2-2-----2-2------     
A-2-2-----4-4-----0-0-----2-2------
E-0-0-----2-2-------------0-0------

e-0-0-----2-2-----0-0-----0-0------
B-0-0-----2-2-----2-2-----0-0------
G-1-1-----2-2-----2-2-----1-1------
D-2-2-----4-4-----2-2-----2-2------     
A-2-2-----4-4-----0-0-----2-2------
E-0-0-----2-2-------------0-0------

e-000000-222222-000000-000000-
B-000000-222222-222222-000000-
G-111111-222222-222222-111111-
D-222222-444444-222222-222222-     x6
A-222222-444444-000000-222222-
E-000000-222222--------000000-

Outro (Guitar 1-clean)

e---------------------------------------------
B---12121212121212/10101010101010/9999999~----
G---13131313131313/11111111111111/9999999~----
D---------------------------------------------
A---------------------------------------------
E---------------------------------------------

e---------------------------------------------
B-1212121212121212/10101010101010/9999999~----
G-1313131313131313/11111111111111/9999999~----
D---------------------------------------------
A---------------------------------------------
E---------------------------------------------

e-----------------------------------------------
B-1010101010-999-1010101010-999-10-12-10-10109~-
G-1111111111-999-1111111111-999-11-13-10-10109~-
D-----------------------------------------------
A-----------------------------------------------
E-----------------------------------------------

e------------------------------------------------
B-1010101010-999-1010101010101010-14-12-10109999-
G-1111111111-999-1111111111111111-14-13-10109999-
D------------------------------------------------
A------------------------------------------------
E------------------------------------------------

Outro (Guitar 2-distortion)

e-0000000-2222222-0000000-00000000-
B-0000000-2222222-2222222-00000000-
G-1111111-2222222-2222222-11111111-
D-2222222-4444444-2222222-22222222-     x4
A-2222222-4444444-0000000-22222222-
E-0000000-2222222---------00000000-

Ending (Guitar 1-clean)

e----------------------------------
B-9~-------------------------------
G-9~-------------------------------
D----------------------------------
A----------------------------------
E----------------------------------

Ending (Guitar 2-distortion)

e-0~-------------------------------
B-0~-------------------------------
G-1~-------------------------------
D-2~-------------------------------     
A-2~-------------------------------
E-0~-------------------------------

Well thats it. This song is pretty simple. I think anyone who is a rancid
fan should go out and buy this album. Any comment e-mail me at Stephanc88@hotmail.com,
and rate this if you wish.
Comments